Song name
# A B C D E F G H I J K L M N O P Q R S T U V W X Y Z

The Wonder Years - Living Room Song chords

Highlighted       Show chord diagrams
-----------------------------------------------------------------------------
                             Living Room Song - The Wonder Years
-----------------------------------------------------------------------------
Tabbed by: Aeronautic11
E-mail:

Tuning: Half-step down

     E    B    A    C    E2
e|---0----0----0----0----0----|
B|---0----0----0----0----0----|
G|---1----4----2----6----9----|
D|---2----4----2----6----9----|
A|---2----2----0----4----7----|
E|---0----0----0----0----0----|

Note: Each set of | | is one measure.

Intro:
| E  B | A | E  B | A |

Verse:
| E  B | A | E  B | A | E  B | A | E  B | A |

Pre:
| C | E2 | B | A | (hold A)

Chorus:
| E  B | A | E  B | A | E  B | A | B | C  A |

Verse:
| E  B | A | E  B | A | E  B | A | E  B | A |

Pre:
| C | E2 | B | A | (hold A)

Chorus:
| E  B | A | E  B | A | E  B | A | B | C  A |

Bridge:
| E | A | B | B  A | E | A | B | B |
| E  B | A | E  B | A | E  B | A | E  B | A | (hold A)

Chorus:
| E  B | A | E  B | A | E  B | A | B | C  A |
| E  B | A | E  B | A | E  B | A | B | C  A | E | (hold E)



Tap to rate this tab
# A B C D E F G H I J K L M N O P Q R S T U V W X Y Z