Song name
# A B C D E F G H I J K L M N O P Q R S T U V W X Y Z

The Wonder Years - Logan Circle chords

Highlighted       Show chord diagrams
Logan Circle Acoustic
The Wonder Years
The Upsides
Mike G


Db                                Ab
They turned on the fountain today

at Logan Circle
Bb                      Gb
I felt something in me change
Db                   Ab
I was thinking about

How we all feel,
Bb                                     Gb
but the worlds not such a shitty place

Db
We just can't blame the seasons
    Ab
The Blue Man Group won't cure depression
Bb
I can see we brought it on ourselves

e|-----------------------------|
b|-----------------------------|
g|--6-----8-----10-----13------|
D|--x-X4--x-X4--x--X4--x--X4---|
A|--4-----6-----8------11------|
E|-----------------------------|
With bad attitudes and
Db
You should come by at eleven,
    Ab
You haven't seen the new apartment
      Bb                          Gb 
We'll laugh about the shit we got into in high school
    Db          Ab
and I can't pretend
Gb    Ab              Db        Ab 
I'm afraid that we're wasting away
             Gb              Ab
'cause we're all sleeping in circles
   Db              Ab
or talking shit in diners
         Gb    Ab             Db       Ab
and I've been better, but I'm feeling okay
Gb            Ab
I'm not even sad anymore
Db           Ab        Gb
I'm just so tired most nights


   Db  Ab  Bb    Gb 
e|------------------------------|
b|(6)-(4)--(6)--(2)-------------|
g|-6---5----6----3--------------|
D|-6---6----8----4--------------|
A|-4---6----8----4--------------|
E|-----4----6----2--------------|
Tap to rate this tab
# A B C D E F G H I J K L M N O P Q R S T U V W X Y Z