Song name
# A B C D E F G H I J K L M N O P Q R S T U V W X Y Z

The Wonder Years - There There tab

There, There - The Wonder Years
The Greatest Generation (2013)

Tuning Drop C#

(No Patterns, Chords only)

Intro 
Rhythm Guitar
|---------------------------|
|---------------------------|
|--6---------6---------2----|   X2
|--7---4--6--7---4--6--0----|
|--7---7--7--7---7--7--0----|
|--7---7--7--7---7--7--0----|


Pre-Verse
Rhythm Guitar
|-------------------------|
|-------------------------|
|-------------------------|
|--44-77-7--0-0-2222------|
|--44-77-7--0-0-2222------|
|--44-77-7--0-0-2222------|

Lead Guitar
|---------------------------|
|-10-10-9-------------------|
|---------9-9----9--9-------|
|------------9-11-11-9-7----|
|---------------------------|
|---------------------------|
                                X2
|---------------------------|
|-10-10-9---------------10--|
|---------9-9----9-----9----|
|------------9-11--9-11-----|
|---------------------------|
|---------------------------|

Verse 1
Rhythm Guitar
(No Pattern, Chords Only)
|-----------------|
|-----------------|
|-----------------|   X2
|--7----0---------|
|--7----0---------|
|--7----0---------|

Lead Guitar
|---------------------------|
|-10-10-10-10--9-9-9-9------|
|---9--9--9--9--9-9-9-9-----| 
|---------------------------|
|---------------------------|
|---------------------------|
                                        X2      
|--------------------------------|
|10p9----------------------------|
|----9--9-----9------------------|
|-----11--9-11--11-9-7-(--Let----| 
|-----------------------Last Note|
|-------------------------Ring)--|

Chorus
Rhythm Guitar
(No Pattern, Chord Only)
|------------------|
|------------------|
|------------------| X4
|--4--7--0--2------| 
|--4--7--0--2------|
|--4--7--0--2------|

Lead Guitar
|---------------------------|
|-10-10-9-------------------|
|---------9-9----9--9-------|
|------------9-11-11-9-7----|
|---------------------------|
|---------------------------|
                                X2
|---------------------------|
|-10-10-9--------12-12-12/10|
|---------9-9---------------|
|------------9-11-----------|
|---------------------------|
|---------------------------|


Verse 2
Rhythm Guitar
(No Pattern, Chords Only)
|-----------------|
|-----------------|
|-----------------|   X2
|--7----0---------|
|--7----0---------|
|--7----0---------|

Lead Guitar
|------------------|
|-9b10-------------|
|-----9-----9------| X4
|-------9-11-11-9-7|
|------------------|
|------------------|

Repeat Chorus.

Thats it! Enjoy.
Tap to rate this tab
 
# A B C D E F G H I J K L M N O P Q R S T U V W X Y Z