Song name
# A B C D E F G H I J K L M N O P Q R S T U V W X Y Z

The Wonder Years - I Fell In Love With A Ninja Master tab

The Wonder Years
I Fell in Love With a Ninja Master

Intro
E|------|
B|------|
G|------|
D|-7----|
A|-7----|
E|-7----|

Verse
E|----------------------------------------|
B|----------------------------------------|
G|--------6-6----7-7----------------------| 
D|-7-7----6-6----7-7----12\----4--4--2--2-|  x2
A|-7-7----4-4----5-5----12\----4--4--2--2-|
E|-7-7------------------12\----4--4--2--2-|


Chorus
E|-----------------------|
B|-----------------------|
G|------6----7-----------|
D|-7----6----7----4----2-|  x2   (2nd time only play the last 2
A|-7----4----5----4----2-|        chords x2 each instead of 6x)
E|-7--------------4----2-|
  X12  x12  x12  x6   x6

E|-----------------------|
B|-----------------------|
G|-4----6----7-----------|
D|-4----6----7----7----2-| x4
A|-2----4----5----7----2-|
E|----------------7----2-|
  X7   x1   x8   x8   x8


Repeat Verse then Chorus and then Intro and finish on outro

Outro
E|----------------------------------------------|
B|----------------------------------------------|
G|--------------------------------------9-9-7-4-|
D|-7--777777---7h9-11-11----7--777777---9-9-7-4-| x7
A|-7--777777---7h9-11-11----7--777777---7-7-5-2-|
E|-7--777777---7h9-11-11----7--777777-----------|
      ******                   ******       

E|------------------------------------------------|
B|------------------------------------------------|
G|--------------------------------------9-9-7-7---|
D|-7--777777---7h9-11-11----7--777777---9-9-7-7-7-|
A|-7--777777---7h9-11-11----7--777777---7-7-5-5-7-|
E|-7--777777---7h9-11-11----7--777777-----------7-|
      ******                   ******       


By James
Tap to rate this tab
# A B C D E F G H I J K L M N O P Q R S T U V W X Y Z