Song name
# A B C D E F G H I J K L M N O P Q R S T U V W X Y Z

The Wonder Years - Dismantling Summer tab

-----------------------------------------------------------------------------
                             Dismantling Summer - The Wonder Years
-----------------------------------------------------------------------------
Tabbed by: poppunk182
E-mail: guitarman519@gmail.com

Tuning:Drop Db/C#
Intro Guitar 1 Figure out the rhythm
e|-----------------------------------------------------------|
B|-----------------------------------------------------------|
G|-9-8-9-8-6-4----9-8-9-8-9-6-4------------------------------|  X2
D|-----------------------------------------------------------|
A|-7-6-7-6-4-2----7-6-7-6-7-4-2------------------------------|
E|-----------------------------------------------------------|

Intro Guitar 2 second time of guitar 1 only     (11s not 1s)
e|--------------------------------------------------------------|
B|--------------------------------------------------------------|
G|-13-11-13-11-9----13-11-13-11-13-14-16------------------------|
D|--------------------------------------------------------------|
A|-11-9--11-9--7----11-9--11-9--11-12-14------------------------|
E|--------------------------------------------------------------|

Verse 1 and 2
e|---------------------------------|
B|---------------------------------|
G|------4----2---------------------|
D|-2----4-x4-2-x8------------------|  X4
A|-2-x4-2----0---------------------|
E|-2-------------------------------|

Then...
e|------------|
B|------------|
G|------------|    Back to Verse for 4 more times
D|-4----------|
A|-4--x16-----|
E|-4----------|

Pre-chorus (Were all waiting for good news)
e|--------------------------------------------|
B|--------------------------------------------|
G|-2----4---------2----6----2-----------------|
D|-2----4----2----2----6----2-----------------|
A|-0-x8-2-x8-2-x8-0-x8-4-x8-0-x8--------------|
E|-----------2--------------------------------|

Chorus
e|------------------------------------------------------------------|
B|------------------------------------------------------------------|
G|-9----------------------------------------------------------------|
D|-9----7----9-11----7----4----7----11----9----4----7----9----4--7--|
A|-7-x8-7-x7-9-11-x8-7-x8-4-x4-7-x4-11-x4-9-x4-4-x4-7-x4-9-x8-4--7--|
E|------7----9-11----7----4----7----11----9----4----7----9----4--7--|

Bridge
e|-------------------------------------------------------------|
B|--------------------------Then-------------------------------|
G|---------------------------------------2---------------------|
D|-2----7----2----9-------x3-------2-----2---------------------|
A|-2-x8-7-x8-2-x8-9-x8-------------2-x8--0-x8------------------|
E|-2----7----2----9----------------2---------------------------|
Back to Chorus

Song Layout
Intro
Verse
Chorus
Intro
Verse
Chorus
Bridge
Chorus

Thanks!!! Email me for corrections
Tap to rate this tab
 
# A B C D E F G H I J K L M N O P Q R S T U V W X Y Z