Song name
# A B C D E F G H I J K L M N O P Q R S T U V W X Y Z

The Wonder Years - There There tab

Since like nobody has the tabs to this song and I think the way I play it sounds pretty
accurate, I'm going to post it. If you have any corrections or thoughts please tell me,
I would love to hear from you!

'You're just trying to read...'
D#-----------------------------|
A#-----------------------------|
F#-----------------------------|   X2
C#-1111111111111111999911111111| (these are elevens not ones)
G#-7-7-7-7-7-7-7-7-77777-7-7-7-|
C#-7-7-7-7-7-7-7-7-77777-7-7-7-|

D#--------------|
A#-33333333-----|
F#-22222222-----|   X4
C#-00000000-----| (this is all the guitar plays the changing
G#--------------|  from major to minor you hear in the background
C#--------------|  is the keyboard I think)

You repeat this whole thing twice.

'I'm sorry I don't laugh at the right times'
D#--------------------775575|
A#-775----5-----775---------|
F#----6446-64------644------| X2 (I know it's off by a little, I'm sorry)
C#-----------77-------------|
G#--------------------------|
C#--------------------------|

'I know how it seems...'
D#-5-5-5-5-4-4-4-4-5-5-5-5-4-4-4-4--5----------5----------|
A#--5-5-5-5-5-5-5-5-5-5-5-5-5-5-5-5--5--5--5----5--5--5---|
F#------------------------------------64-64-64---64-64-64-| X2
C#--------------------------------------------7----------7|
G#--------------------------------------------------------|
C#--------------------------------------------------------|

'I'm sorry I don't laugh at the right times'
D#--------------------775575|
A#-775----5-----775---------|
F#----6446-64------644------| X2
C#-----------77-------------|
G#--------------------------|
C#--------------------------|

'I've got my heart...'
D#---------------------------------|
A#---------------------------------|
F#---------------------------------| X2 (You're going to have to figure out
C#-77777777777777770000000000000000|     the strumming pattern for yourself)
G#-77777777777777770000000000000000|
C#-77777777777777770000000000000000|
PM-----------------**--------------|

They just randomly play this at some parts
D#----------|
A#-991010999|
F#-889-9-888|
C#----------|
G#----------|
C#----------|
There is some more lead guitar somewhere during this part but I can't figure out what it is.

'I'm sorry I don't laugh at the right times'
D#--------------------775575|
A#-775----5-----775---------|
F#----6446-64------644------| X2
C#-----------77-------------|
G#--------------------------|
C#--------------------------|

I don't know the chords that go to the chorus.
Tap to rate this tab
# A B C D E F G H I J K L M N O P Q R S T U V W X Y Z