Song name
# A B C D E F G H I J K L M N O P Q R S T U V W X Y Z

The Wonder Years - Passing Through A Screen Door tab

I want to learn this entire album on guitar and I'm going to be doing a lot of it
through ear. When I figure out the tabs to songs I'm just going to post them on here so you
guys don't have to spend hours trying to figure them out. If you have any corrections 
post them bellow please I would love to hear from you!

'Cigarette smoke...'
D#-----------------------------------------|
A#-----------------------------------------|
F#-9999999999999999999999991313131311111111| X2
C#-999999999999999999999999111111119-9-9-9-| (elevens not ones)
G#-777777777777777777777777111111119-9-9-9-|
C#---------6666666677777777111111119-9-9-9-|

'While my cousins go to bed with their wives'
D#---------------------------------------------------------|
A#---------------------------------------------------------|
F#-99999999111111111111111113131313131313131313131313131313|
C#-777777779-9-9-9-9-9-9-9-11111111111111111111111111111111|
G#-777777779-9-9-9-9-9-9-9-11111111111111111111111111111111|
C#-777777779-9-9-9-9-9-9-9-11111111111111111111111111111111|

'I'm feeling like I've fallen behind'
D#---------------------------------|
A#---------------------------------|
F#-9999999911111111111111116~6~6~6~|
C#-777777779-9-9-9-9-9-9-9-4~4~4~4~|
G#-777777779-9-9-9-9-9-9-9-4~4~4~4~|
C#-777777779-9-9-9-9-9-9-9-4~4~4~4~|

'Well the highway won...'
Rhythm
D#-----------------------------------------|
A#-----------------------------------------|
F#-9999999999999999999999991313131311111111| X2
C#-999999999999999999999999111111119-9-9-9-|
G#-777777777777777777777777111111119-9-9-9-|
C#---------6666666677777777111111119-9-9-9-|

Lead
D#-0~~0~~0~0~~0~~0~0~~0~0~~0~~0~0~|
A#--4~~4~~4~4~~4~~4~2~~2~2~~2~~2~2|
F#---4~~4~~~~4~~4~~~~2~~2~~~~2~~2~| X2
C#--------------------------------|
G#--------------------------------|
C#--------------------------------|

'First thing that I do when I walk in'
D#-----------------------------------------|
A#-----------------------------------------|
F#-9999999911111111111111116666666666666666|
C#-777777779-9-9-9-9-9-9-9-4444444444444444|
G#-777777779-9-9-9-9-9-9-9-4444444444444444|
C#-777777779-9-9-9-9-9-9-9-4444444444444444|

'Is plan a way out for when shit gets bad'
D#---------------------------------------------------------|
A#---------------------------------------------------------|
F#-99999999111111111111111113131313131313131313131313131313|
C#-777777779-9-9-9-9-9-9-9-11111111111111111111111111111111|
G#-777777779-9-9-9-9-9-9-9-11111111111111111111111111111111|
C#-777777779-9-9-9-9-9-9-9-11111111111111111111111111111111|

'I've been looking for tears in the screen door'
D#-------------------------------------------------|
A#-------------------------------------------------|
F#-131313131313131311111111111111116666666644444444|
C#-----------------------------------------22222222|
G#-11111111111111119-9-9-9-9-9-9-9-4444444422222222|
C#-----------------------------------------22222222|

'(Tears in the screen door)'
D#-------------------------------------------------|
A#-------------------------------------------------|
F#-1313131313131313111111111111111199999999999999/8|
C#-------------------------------------------------|
G#-11111111111111119-9-9-9-9-9-9-9-77777777777777/6|
C#-------------------------------------------------|

'I've been waiting for another disaster (Another disaster)'
D#-------------------------------------------------------------------------|
A#-------------------------------------------------------------------------|
F#-999999998888888866666666444444449999999911111111111111119999999999999999|
C#-------------------------22222222----------------------------------------|
G#-77777777666666664444444422222222777777779-9-9-9-9-9-9-9-7777777777777777|
C#-------------------------22222222----------------------------------------|

Interlude
D#-444444444444444444444444---------|
A#-555555554444444444444444-7/999977|
F#-444444444444444422222222---------|
C#--------------------------4/666644|
G#----------------------------------|
C#----------------------------------|

'Well I'm still afraid...'
Lead
D#-0~~0~~0~0~~0~~0~0~~0~0~~0~~0~0~|
A#--4~~4~~4~4~~4~~4~2~~2~2~~2~~2~2|
F#---4~~4~~~~4~~4~~~~2~~2~~~~2~~2~|
C#--------------------------------|
G#--------------------------------|
C#--------------------------------|

'It's all a lie...'
Rhythm
D#-------------------------------------------------|
A#-------------------------------------------------|
F#-----9----9--8----9----9--8----9----9--8-99999999|
C#-----9----9--9----9----9--9----9----9--9-99999999|
G#-777777777777777777777777777777777777777-77777777|
C#-------------------------------------------------|
PM-****-****-**-****-****-**-****-****-**----------|

Lead
D#-0~~0~~0~0~~0~~0~0~~0~0~~0~~0~0~|
A#--4~~4~~4~4~~4~~4~2~~2~2~~2~~2~2|
F#---4~~4~~~~4~~4~~~~2~~2~~~~2~~2~|
C#--------------------------------|
G#--------------------------------|
C#--------------------------------|

Second Pre Chorus
D#-------------------------------------------------------------------|
A#-------------------------------------------------------------------|
F#-6898~11989~644~111111111111111113131313111111116898~11989~644~----|
C#-------------------------------------------------------------------|
G#-4676~9-767~422~9-9-9-9-9-9-9-9-111111119-9-9-9-4676~9-767~422~----|
C#---------------------------------------------------------------18/0|

'I've been looking for tears in the screen door'
D#-------------------------------------------------|
A#-------------------------------------------------|
F#-131313131313131311111111111111116666666644444444|
C#-----------------------------------------22222222|
G#-11111111111111119-9-9-9-9-9-9-9-4444444422222222|
C#-----------------------------------------22222222|

'(Tears in the screen door)'
D#-------------------------------------------------|
A#-------------------------------------------------|
F#-1313131313131313111111111111111199999999999999/8|
C#-------------------------------------------------|
G#-11111111111111119-9-9-9-9-9-9-9-77777777777777/6|
C#-------------------------------------------------|

'I've been waiting for another disaster (Another disaster)'
D#-------------------------------------------------------------------------|
A#-------------------------------------------------------------------------|
F#-999999998888888866666666444444449999999911111111111111119999999999999999|
C#-------------------------22222222----------------------------------------|
G#-77777777666666664444444422222222777777779-9-9-9-9-9-9-9-7777777777777777|
C#-------------------------22222222----------------------------------------|

'I was kind of hoping you'd stay...'
D#---------------------------------|
A#---------------------------------|
F#-99999999111111111111111199999999|
C#-777777779-9-9-9-9-9-9-9-77777777|
G#-777777779-9-9-9-9-9-9-9-77777777|
C#-777777779-9-9-9-9-9-9-9-77777777|

Bridge Part A
Rhythm
D#---------------------------------|
A#---------------------------------|
F#-6666444422222222----------------| X3
C#-66664444222222227777777777777777|
G#-44442222000000007777777777777777|
C#-----------------6666666677777777|
PM-********************************|

Lead
D#-0~0~0~0~0~0~0~0~0~~~~0~~~~----|
A#--4~4~4~4~4~4~4~4~797~~797~----|
F#-------------------------------| (doesn't come in until the third
C#-------------------------------|  rhythm starts)
G#-------------------------------|
C#---------------------------18/0|

Bridge Part B 'Jesus Christ I'm 26'
D#-----------------------------------------|
A#-----------------------------------------|
F#-4444444499999999131313131313131399999999| X2
C#-2222222277777777111111111111111177777777|
G#-2222222277777777111111111111111177777777|
C#-2222222277777777111111111111111177777777|

'Jesus Christ did I fuck up?'
D#-------------|
A#-------------|
F#-6~~~4~~~----|
C#-6~~~4~~~----|
G#-4~~~2~~~----|
C#---------18/0|

'I've been looking for tears in the screen door'
D#-------------------------------------------------|
A#-------------------------------------------------|
F#-131313131313131311111111111111116666666644444444|
C#-----------------------------------------22222222|
G#-11111111111111119-9-9-9-9-9-9-9-4444444422222222|
C#-----------------------------------------22222222|

'(Tears in the screen door)'
D#-------------------------------------------------|
A#-------------------------------------------------|
F#-1313131313131313111111111111111199999999999999/8|
C#-------------------------------------------------|
G#-11111111111111119-9-9-9-9-9-9-9-77777777777777/6|
C#-------------------------------------------------|

'I've been waiting for another disaster (Another disaster)'
D#-------------------------------------------------------------------------|
A#-------------------------------------------------------------------------|
F#-999999998888888866666666444444449999999911111111111111119999999999999999|
C#-------------------------22222222----------------------------------------|
G#-77777777666666664444444422222222777777779-9-9-9-9-9-9-9-7777777777777777|
C#-------------------------22222222----------------------------------------|

'I was kind of hoping you'd stay...'
Lead
D#-00000000000000000000000000000000000000000~|
A#-55554444555555555555444455557777555544445~|
F#---------44444444--------------------------|
C#-------------------------------------------|
G#-------------------------------------------|
C#-------------------------------------------|

Rhythm
D#-------------------------------------------|
A#-------------------------------------------|
F#-----------------------------------------9~|
C#---------------------------------77779999--|
G#---------------------------------777799997~|
C#---------------------------------77779999--|
PM---------------------------------********--|
Tap to rate this tab
# A B C D E F G H I J K L M N O P Q R S T U V W X Y Z