Song name
# A B C D E F G H I J K L M N O P Q R S T U V W X Y Z

The Wonder Years - Woke Up Older tab

-----------------------------------------------------------------------------
                             WOKE UP OLDER - The Wonder Years
-----------------------------------------------------------------------------
Tuning: Drop C#

Okay, I've got most of this down except for all the dissonant parts like the pre-chorus 
lead but I did my best.

Intro:
eb|------8--8-----------------------|
Bb|-6--6------6-8------8---8---8-10-|
Gb|---------------------------------|
Db|---------------------------------|
Ab|---------------------------------|
Db|---------------------------------|
  |                                 |
eb|---------------------------------|
Bb|---------------------------------|
Gb|-3-3-3-7-7-7-5-5-5-5-5---5-5-5---|
Db|-3-3-3-7-7-7-5-5-5-5-5-0-5-5-5-0-|
Ab|-1-1-1-5-5-5-3-3-3-3-3-0-3-3-3-0-|
Db|-----------------------0-------0-|
*rhythm guitar comes in after 2nd time

Verse:
eb|----8---------8------------|
Bb|---6---------6--8----------|
Gb|-7-------------------------|x2
Db|---------------------------|
Ab|---------------------------|
Db|---------------------------|

eb|-8--8--8--8-10-8--8--8--8---|
Bb|--10-10-10------10-10-10-10-|
Gb|----------------------------|
Db|----------------------------|
Ab|----------------------------|
Db|----------------------------|
  |                            |x2
eb|----------------------------|
Bb|----------------------------|
Gb|----------------------------|
Db|----------------------------|
Ab|-8-------------/8-----------|
Db|-8--------------------------|

Pre-Chorus:
eb|-----------------------------------|-----------------------------------|
Bb|-----------------------------------|-----------------------------------|
Gb|-----------------------------------|-----------------------------------|
Db|------5-5-5-5-5-5-8-8-8-8-7-7-7-7--|------5-5-5-5-5-5-8-8-8-8-10101010-|
Ab|-10/--5-5-5-5-5-5-8-8-8-8-8-8-8-8--|-10/--5-5-5-5-5-5-8-8-8-8-10101010-|
Db|------5-5-5-5-5-5-8-8-8-8-7-7-7-7--|------5-5-5-5-5-5-8-8-8-8-10101010-|
  |                                   |                                   |
eb|--------0---0---0--8---8---8---8---|--------0---0---0--8---8---6--5----|
Bb|-------6-6-6-6-6-6--6-6-6-6-6-6-6-6|-------6-6-6-6-6-6--6-6-6-6--------|
Gb|------7---7---7---7--7---7---7---7-|------7---7---7---7--7---7---------|
Db|-----------------------------------|-----------------------------------|
Ab|-----------------------------------|-----------------------------------|
Db|-----------------------------------|-----------------------------------|

Chorus: x2
eb|--------------------------------------------------|
Bb|--------------------------------------------------|
Gb|-----------5--5--5-5-5-5--------------------------|
Db|--0--0-0-0-5--5--5-5-5-5-5--5--5-5-5-8--8--8-8-8--|
Ab|--0--0-0-0-3--3--3-3-3-3-5--5--5-5-5-8--8--8-8-8--|
Db|--0--0-0-0---------------5--5--5-5-5-8--8--8-8-8--|
  |                                                  |
eb|--------------------------------------------------|
Bb|--------------------------------------------------|
Gb|--7--7-7-7-9--9--9-9-9-9-12-12-12/14-10-10-101010-|
Db|--x--x-x-x-x--x--x-x-x-x-x--x--x--x--x--x--x-x-x--|
Ab|--5--5-5-5-7--7--7-7-7-7-10-10-10/12-8--8--8-8-8--|
Db|--------------------------------------------------|

1st Ending:                            2nd Ending:
eb|-----------------------------------|----------------------------|
Bb|-----------------------------------|----------------------------|
Gb|---------5-5-5-5-3-3-3-3-3-3-3-3---|----------------------------|
Db|-3-3-3-3-5-5-5-5-3-3-3-3-3-3-3-3---|-5-5-5-5-5-5-58--8-8-8-8888-|
Ab|-3-3-3-3-3-3-3-3-1-1-1-1-1-1-1-1---|-5-5-5-5-5-5-58--8-8-8-8888-|
Db|-3-3-3-3---------------------------|-5-5-5-5-5-5-58--8-8-8-8888-|
  |                                   |                            |
eb|-----------------------------------|---80--0---80--0---80--0----|
Bb|-----------------------------------|--6---6-6-6---6-6-6---6-6---|
Gb|-5-5-5-5-10101010-9/7-75-5-7/5-7/5-|-7---7---7---7---7---7------|
Db|-x-x-x-x-x-x-x-x--x-x-xx-x-x-x-x-x-|----------------------------|
Ab|-3-3-3-3-8-8-8-8--7/5-53-3-5/3-5/3-|----------------------------|
Db|-----------------------------------|----------------------------|

Verse 2:
eb|-----------------------------------------------------|
Bb|-----------------------------------------------------|
Gb|-----------------------------------------------------|
Db|-7------5-------3------------------------------------|
Ab|-5------3-------1---------/8-------8-------/8--------|
Db|-----------------------------------8-----------------|
  |                                                     |
eb|----8----------8------------------------5-------8----|
Bb|---6---------6---8-----------6-8------6-------8---6--|
Gb|-7----------7---------------7--------7-------7-------|
Db|-----------------------------------------------------|
Ab|-----------------------------------------------------|
Db|-----------------------------------------------------|


eb|------------------------------0---0-----|
Bb|-------------------------------6---6----|
Gb|----------------------------------------|x2
Db|----------8877--------------------------|
Ab|---8--10------101088---8--10------------|
Db|-88-88--88-----------88-88--88--88--88--|
  |                                        |
eb|-8----8----8----8-10-8----8----8----8---|
Bb|---10---10---10--------10---10---10---10|
Gb|----------------------------------------|
Db|----------------------------------------|
Ab|----------------------------------------|
Db|----------------------------------------|


Then repeat Pre-chorus and Chorus

Interlude:
eb|-----------------------------------------|
Bb|-----------------------------------------|
Gb|-----------------------------------------|
Db|-7----5--------------7----5--------------|
Ab|-5----3---/8---------5----3---/8---------|
Db|-----------------------------------------|
  |                                         |
eb|-----------------------------------------|
Bb|-----------------------------------------|
Gb|-10---9----5---------10---9----7---------|
Db|-x----x----x---------x----x----x---------|
Ab|-8----7----3---------8----7----5---------|
Db|-----------------------------------------|

Bridge:
eb|--------------------------------|
Bb|--------------------------------|
Gb|-7--7--7-5--5--5----------------|
Db|-7--7--7-5--5--5-3-----3-3-3-3--|
Ab|-5--5--5-3--3--3-3-----3-3-3-3--|
Db|-----------------3-----3-3-3-3--|
  |                                |
eb|--------------------------------|
Bb|--------------------------------|
Gb|-10-10-109--9--9-5-----5-5-5-5--|
Db|-x--x--x-x--x--x-x-----x-x-x-x--|
Ab|-8--8--8-7--7--7-3-----3-3-3-3--|
Db|--------------------------------|

eb|--------------------------------------------------|
Bb|--------------------------------------------------|
Gb|-7-7-7-7-9-9-9-9-101010109-9-9-9-1010101012121212-|
Db|-x-x-x-x-x-x-x-x-x-x-x-x-x-x-x-x-x-x-x-x-x-x-x-x--|
Ab|-5-5-5-5-7-7-7-7-8-8-8-8-7-7-7-7-8-8-8-8-10101010-|
Db|--------------------------------------------------|
  |                                                  |
eb|--------------------------------------------------|
Bb|--------------------------------------------------|
Gb|-101010101212121214141414141414141717171717171717-|
Db|-x-x-x-x-x-x-x-x-x-x-x-x-x-x-x-x-x-x-x-x-x-x-x-x--|
Ab|-8-8-8-8-1010101012121212121212121515151515151515-|
Db|--------------------------------------------------|

Then, repeat the Intro and then the Chorus and you're done
Tap to rate this tab
# A B C D E F G H I J K L M N O P Q R S T U V W X Y Z