Song name
# A B C D E F G H I J K L M N O P Q R S T U V W X Y Z

The Wonder Years - Dismantling Summer tab

Intro
Rhythm
D#-----------------------------------|
A#-----------------------------------|
F#---9988998866666666--9988998~9~6444| X2
C#-22xxxxxxxxxxxxxxxx22xxxxxxx-x-xxxx|
G#-227766776644444444227766776~7~4222|
C#-22----------------22--------------|

Lead (comes in second time around)
D#------------------------------------------------------|
A#------------------------------------------------------|
F#---131311111313111199999999--13131111131311~9~13111111|
C#-22xxxxxxxxxxxxxxxxxxxxxxxx22xxxxxxxxxxxxxx-x-xxxxxxxx|
G#-2211119-9-11119-9-777777772211119-9-11119-~7~119-9-9-|
C#-22------------------------22-------------------------|

'I'm pulling wings of insects...'
D#-----------------|
A#-----------------|
F#-----444422222222| X4
C#-2222444422222222|
G#-2222222200000000|
C#-2222------------|
PM-****************|

Interlude
Rhythm
D#-----------------|
A#-----------------|
F#-----------------|
C#-4444444477777777|
G#-4444444477777777|
C#-4444444477777777|
PM-****************|

Lead
D#-------------4h5p4|
A#------------------|
F#-8h9p8~6~4~~4-----|
C#------------------|
G#------------------|
C#------------------|

'I'm filling your perscriptions...'
Rhythm
D#-----------------|
A#-----------------|
F#-----444422222222| X4
C#-2222444422222222|
G#-2222222200000000|
C#-2222------------|
PM-****************|

Lead (comes in half way through verse)
D#----------------------------------|
A#-9~9~7~7~10~10~9~9~9~9~7~7~-------|
F#--9~9~9~9~~9~~9~9~9~9~9~9~98~6~9~~|
C#----------------------------------|
G#----------------------------------|
C#----------------------------------|

'We're all waiting for good news...'
D#-------------------------------------------------|
A#-------------------------------------------------|
F#-2222222244444444--------22222222--------22222222|
C#-222222224444444422222222222222224444444422222222|
G#-000000002222222222222222000000004444444400000000|
C#-----------------22222222--------44444444--------|

'I've been acting like I'm strong...'
D#---------------------------------------------------------------------------------|
A#---------------------------------------------------------------------------------|
F#---------------------------------------------------------------------------------|
C#-22222222777777/91111111111111111999999994444777722229999444477779999999944447777|
G#-22222222777777/91111111111111111999999994444777722229999444477779999999944447777|
C#-22222222777777/91111111111111111999999994444777722229999444477779999999944447777|

Interlude
Rhythm
D#-----------------------------------|
A#-----------------------------------|
F#---9988998866666666--9988998~9~6444|
C#-22xxxxxxxxxxxxxxxx22xxxxxxx-x-xxxx|
G#-227766776644444444227766776~7~4222|
C#-22----------------22--------------|

Lead
D#----------------------------------------------|
A#----------------------------------------------|
F#---------------------13131111131311~9~13111111|
C#-------------------22xxxxxxxxxxxxxx-x-xxxxxxxx|
G#-------------------2211119-9-11119-~7~119-9-9-|
C#-------------------22-------------------------|

'I grew up on your back porch...'
Rhythm
D#-----------------|
A#-----------------|
F#-----4~~~2~~~~~~~| X4
C#-2~~~4~~~2~~~~~~~|
G#-2~~~2~~~0~~~~~~~|
C#-2~~~------------|

Lead (comes in half way through verse)
D#----------------------------------|
A#-9~9~7~7~10~10~9~9~9~9~7~7~-------|
F#--9~9~9~9~~9~~9~9~9~9~9~9~98~6~9~~|
C#----------------------------------|
G#----------------------------------|
C#----------------------------------|

'I've been putting off long flights...'
D#-------------------------------------------------|
A#-------------------------------------------------|
F#-2222222244444444--------22222222--------22222222|
C#-222222224444444422222222222222224444444422222222|
G#-000000002222222222222222000000004444444400000000|
C#-----------------22222222--------44444444--------|

'I've been acting like I'm strong...'
D#---------------------------------------------------------------------------------|
A#---------------------------------------------------------------------------------|
F#---------------------------------------------------------------------------------|
C#-22222222777777/91111111111111111999999994444777722229999444477779999999944447777|
G#-22222222777777/91111111111111111999999994444777722229999444477779999999944447777|
C#-22222222777777/91111111111111111999999994444777722229999444477779999999944447777|

Post Chorus
D#-------------|
A#-------------|
F#---------9999|
C#-222222229999|
G#-222222227777|
C#-22222222----|

'If I'm in an airport...'
Rhythm
D#---------------------------------|
A#---------------------------------|
F#---------------------------------| X2
C#-2222-2229999-9446666----7777----|
G#-2222-2229999-9446666----7777----|
C#-2222-2229999-9446666----7777----|

D#---------------------------------|
A#---------------------------------|
F#---------------------------------|
C#-2222-2229999-9446666666677777777|
G#-2222-2229999-9446666666677777777|
C#-2222-2229999-9446666666677777777|
PM-----------------****************|

Lead
D#--------------------------------------------|
A#--------------------------------------------|
F#-8h9p86~4~-13111111131313-913/11999131111119| X2
C#--------------------------------------------|
G#--------------------------------------------|
C#--------------------------------------------|

D#---------------------------------------------------4h5p4|
A#--------------------------------------------------------|
F#-8h9p86~4~-1199913~~~11~~~-999131111119-8h9p86~4~4~-----|
C#--------------------------------------------------------|
G#--------------------------------------------------------|
C#--------------------------------------------------------|

'I've been acting like I'm strong...'
D#---------------------------------------------------------------------------|
A#---------------------------------------------------------------------------|
F#---------------------------------------------------------------------------|
C#-2~~~2~~~7~~~7~/911~~~11~~~9~~~9~~~4~~~7~~~2~~~9~~~4~~~7~~~9~~~~~~~4~~~7~~~|
G#-2~~~2~~~7~~~7~/911~~~11~~~9~~~9~~~4~~~7~~~2~~~9~~~4~~~7~~~9~~~~~~~4~~~7~~~|
C#-2~~~2~~~7~~~7~/911~~~11~~~9~~~9~~~4~~~7~~~2~~~9~~~4~~~7~~~9~~~~~~~4~~~7~~~|

'Hadn't felt a heart break until now...'
D#---------------------------------------------------------------------------------|
A#---------------------------------------------------------------------------------|
F#---------------------------------------------------------------------------------|
C#-22222222777777772222222277777777444477772222999944447777999999994~~~7---2~~~~~~~|
G#-22222222777777772222222277777777444477772222999944447777999999994~~~7---2~~~~~~~|
C#-22222222777777772222222277777777444477772222999944447777999999994~~~7---2~~~~~~~|
Tap to rate this tab
 
# A B C D E F G H I J K L M N O P Q R S T U V W X Y Z