Song name
# A B C D E F G H I J K L M N O P Q R S T U V W X Y Z

The Wonder Years - There There tab

This is the intro track off The Wonder Years 4th album The Greatest Generation. It 
is played in Drop Db (Drop C#) and is easily my favorite song on the album so I 
touched up the tabs that were already posted. They're not perfect but I feel like 
these are clearer and closer to being right so I hope you all enjoy.

Intro x2
Rhythm Guitar
|-------------------------------|
|-------------------------------|
|-------------------------------|               X2
|-1111111111111111--------------|
|-7-7-7-7-7-7-7-7-9999-11111111-|
|-7-7-7-7-7-7-7-7-7777-7-7-7-7--|

|------------------|
|------------------|
|------------------|      x2
|-7777777777777777-|
|-0000000000000000-|
|-0000000000000000-|

Chorus 1
Rhythm Guitar
|-------------------------|
|-------------------------|
|-------------------------|
|--44-77-7--0-0-2222------|
|--44-77-7--0-0-2222------|
|--44-77-7--0-0-2222------|

Lead Guitar
|---------------------------|
|-10-10-9-------------------|
|---------9-9-----9---------|
|-------------9-11--11-9-77-|
|---------------------------|
|---------------------------|
                                X2
|---------------------------|
|-10-10-9----------------10-|
|---------9-9-----9-----9---|
|-------------9-11--9-11----|
|---------------------------|
|---------------------------|

Verse
Rhythm Guitar
|-------------------|
|-------------------|
|-------------------|   X4
|-77777777-00000000-|
|-77777777-00000000-|
|-77777777-00000000-|

Lead Guitar
|---------------------------|
|-10-10-10-10--9-9-9-9------|
|---9--9--9--9--9-9-9-9-----| 
|---------------------------|
|---------------------------|
|---------------------------|
X2      
|----------------------------|
|10p9------------------------|
|----9--9-----9------------9-|
|-----11--9-11--11-9-7-9-11--| 
|----------------------------|
|----------------------------|

Chorus 2
Rhythm Guitar
|-------------------------|
|-------------------------|
|-------------------------|
|--44-77-7--0-0-2222------|     x4
|--44-77-7--0-0-2222------|
|--44-77-7--0-0-2222------|

Lead Guitar
|---------------------------|
|-10-10-9-------------------|
|---------9-9-----9---------|
|-------------9-11--11-9-77-|
|---------------------------|
|---------------------------|
                                X4
|---------------------------|
|-10-10-9----------------10-|
|---------9-9-----9-----9---|
|-------------9-11--9-11----|
|---------------------------|
|---------------------------|

Bridge
Rhythm Guitar
|---------------------------------------------------------------------|
|---------------------------------------------------------------------|
|---------------------------------------------------------------------| X2
|-77777777777777777777777777777777-0-0-000000000000000000000000000000-|
|-77777777777777777777777777777777-0-0-000000000000000000000000000000-|
|-77777777777777777777777777777777-0-0-000000000000000000000000000000-|
                                                    * *

Lead Guitar
|----------------------------------|
|-9b10r9b10r9----------------------|
|------------9-----9------------9--| X4
|--------------9-11--11-9-7-9-11---|
|----------------------------------|
|----------------------------------|

Chorus 3
Rhythm Guitar
|-------------------------|
|-------------------------|
|-------------------------|
|--44-77-7--0-0-2222------|     x3
|--44-77-7--0-0-2222------|
|--44-77-7--0-0-2222------|

|-------------------------|
|-------------------------|
|-------------------------|
|--44-77-7--0-0-2222------|     
|--44-77-7--0-0-2222------|
|--44-77-7--0-0-2222------|
                ****
Lead Guitar
|---------------------------|
|-10-10-9-------------------|
|---------9-9-----9---------|
|-------------9-11--11-9-77-|
|---------------------------|
|---------------------------|
                                X4
|---------------------------|
|-10-10-9----------------10-|
|---------9-9-----9-----9---|
|-------------9-11--9-11----|
|---------------------------|
|---------------------------|
Tap to rate this tab
# A B C D E F G H I J K L M N O P Q R S T U V W X Y Z