Song name
# A B C D E F G H I J K L M N O P Q R S T U V W X Y Z

The Wonder Years - There There tab

Obviously, this song is not playedin this tuning, but while I was
trying to work out an Into It. Over It. song I came across this way of
playing There, There. Have fun with this alternate(acoustic) version. Don't hate too hard.

Tuning: (low to high) EBBEBE

Intro/Verse

E----0-0---0---0-|
B----0-0---0---0-|
E----0-0---0---0-|
B-000000-000-000-|  x2
B-555555/222/444-|
E-000000-000-000-|

E----0---0----0---0----0---0----0---0-|
B----0---0----0---0----0---0----0---0-|
E----0---0----0---0----0---0----0---0-|
B-00000000-00000000-00000000-00000000-|
B-55555555-44444444-55555555-00000000-|
E-55555555-55555555-55555555-55555555-|

E----0-0---0---0-|
B----0-0---0---0-|
E----0-0---0---0-|
B-000000-000-000-|  x2
B-555555/222/444-|
E-000000-000-000-|

E----0---0----0---0----0---0-0~
B----0---0----0---0----0---0-0~
E----0---0----0---0----0---0-0~
B-00000000-00000000-00000000-0~
B-55555555-44444444-55555555-0~
E-55555555-55555555-55555555-5~

Break

E-X-0000-0000-X-000-0000-|
B-X-0000-0000-X-000-0000-|
E-X-0000-0000-X-000-0000-|
B-X-0000-0000-X-000-0000-|  x4
B-X-9999/5555-X-777-7975-|
E-X-9990/5555-X-777-7777-|

Verse 2

E----0-0---0---0-|
B----0-0---0---0-|
E----0-0---0---0-|
B-000000-000-000-|  x2
B-555555/222/444-|
E-000000-000-000-|

E----0---0----0---0----0---0----0---0-|
B----0---0----0---0----0---0----0---0-|
E----0---0----0---0----0---0----0---0-|
B-00000000-00000000-00000000-00000000-|
B-55555555-44444444-55555555-00000000-|
E-55555555-55555555-55555555-55555555-|

E----0-0---0---0-|
B----0-0---0---0-|
E----0-0---0---0-|
B-000000-000-000-|  x2
B-555555/222/444-|
E-000000-000-000-|

E----0---0----0---0----0---0-0~
B----0---0----0---0----0---0-0~
E----0---0----0---0----0---0-0~
B-00000000-00000000-00000000-0~
B-55555555-44444444-55555555-0~
E-55555555-55555555-55555555-5~

Chorus

E-X-0000-0000-X-000-0000-|
B-X-0000-0000-X-000-0000-|
E-X-0000-0000-X-000-0000-|
B-X-0000-0000-X-000-0000-|  x4
B-X-9999/5555-X-777-7975-|
E-X-9999/5555-X-777-7777-|

Bridge

E-00000000-0000-0000-|
B-00000000-0000-0000-|
E-00000000-0000-0000-|
B-00000000-0000-0000-|  x2
B-55555555/2222/4444-|
E-00000000-0000-0000-|

E-00000000-00000000-00000000-00000000-|
B-00000000-00000000-00000000-00000000-|
E-00000000-00000000-00000000-00000000-|
B-00000000-00000000-00000000-00000000-|
B-55555555-44444444-55555555-00000000-|
E-55555555-55555555-55555555-55555555-|

E-00000000-0000-0000-|
B-00000000-0000-0000-|
E-00000000-0000-0000-|
B-00000000-0000-0000-|  x2
B-55555555/2222/4444-|
E-00000000-0000-0000-|

E-00000000-00000000-00000000-00000000-|
B-00000000-00000000-00000000-00000000-|
E-00000000-00000000-00000000-00000000-|
B-00000000-00000000-00000000-00000000-|
B-55555555-44444444-55555555-00000000-|
E-55555555-55555555-55555555-55555555-|

Outro
E-0000-0000-X-000-0000-|
B-0000-0000-X-000-0000-|
E-0000-0000-X-000-0000-|
B-0000-0000-X-000-0000-|  x4
B-9999/5555-X-777-7975-|
E-9999/5555-X-777-7777-|

E-0~
B-0~
E-0~
B-0~
B-0~
E-0~
Tap to rate this tab
# A B C D E F G H I J K L M N O P Q R S T U V W X Y Z