Song name
# A B C D E F G H I J K L M N O P Q R S T U V W X Y Z

The Wood Brothers - Chocolate On My Tongue tab

-----------------------------------------------------------------
Chocolate On My Tongue - The Wood Brothers
-----------------------------------------------------------------
Tabbed by: b561248

This may not be the -exact- way it's played on the record, but it's just a pretty
little finger-plucked ditty, so it doesn't need to be.

Tuning: Standard

Riff 1:
  E5               E5              E5              E5
e|---------0-----|----------0----|---------0-----|----------0----|
B|-------0-------|--------0------|-------0-------|--------0------|
G|---------------|---------------|---------------|---------------|
D|----2-------2--|----2-------2--|----2-------2--|----2-------2--|
A|---------------|---------------|---------------|---------------|
E|-0-------------|-0-------------|-0-------------|-0-------------|


Riff 2:
  B7               B7              E5              E5
e|---------2---2-|---2----0----2-|-4-------0-----|----------0----|
B|---------------|---------------|-------0-------|--------0------|
G|---------------|---------------|---------------|---------------|
D|----1----------|---------------|----2-------2--|----2-------2--|
A|-2-------------|---2-----------|---------------|---------------|
E|---------------|---------------|-0-------------|-0-------------|

Riff 3:
  Em/G             Em/G            Asus2/F#        Asus2/F#
e|-------0-------|-------0-------|-------0-------|-------0-------|
B|----------0----|----------0----|----------0----|----------0----|
G|----0--------0-|----0--------0-|----2--------2-|----2--------2-|
D|---------------|---------------|---------------|---------------|
A|---------------|---------------|---------------|---------------|
E|-3-------------|-3-------------|-2-------------|-2-------------|

Lead guitar in the beginning: (note: you can easily play this along with the 
guitar, but I think it's two guitars on the record).

e|--6h7-7----3---|0--------------|--6h7-7---2/3--|0--------------|

So the song:

(Riff 1)
Sittin' on the front porch

(Riff 1)
Ice cream in my hand

(Riff 1)
Meltin' in the sun

(Riff 1)
All that chocolate on my tongue

(Here walk up the bass note: A Bb B)
(Riff 2)
And that's good enough reason to live

(Riff 2)
Good enough reason to live

Sittin' in the bathtub
Hi-fi playin' low
Diggin' all that green
Well you must know what I mean

And that's good enough reason to live
Good enough reason to live

(Now walk up the bass: E F# G)
(Riff 3)
If I die young

                   (Riff 1)
At least I got some chocolate on my tongue

(Riff 3)
If I die young

                   (Riff 1)
'Least I got some chocolate on my tongue

Sittin' in the front seat
Good girl in my arms
Smilin' in my eyes
Gettin' me all hypnotized

And that's good enough reason to live
Good enough reason to live

If I die young
At least I got some chocolate on my tongue
If I die young
'Least I got some chocolate on, chocolate on my tongue
If I die young
At least I got some chocolate on my tongue

That's it.  There is of course a bit of noodling and several variations in the song, but 
very easy to pick up or make up.

Thanks,
b561248
Tap to rate this tab
 
# A B C D E F G H I J K L M N O P Q R S T U V W X Y Z