Song name
# A B C D E F G H I J K L M N O P Q R S T U V W X Y Z

The Wooden Sky - An Evening Hymn tab

-------------------------------------------------------------------------------
			     An Evening Hymn - The Wooden Sky
-------------------------------------------------------------------------------
Tabbed by: RabbleFabble
Email: antilanterngrue@live.ca

Tuning: Standard (eBGDAE)

The majority of the song is just this riff:

e|---------------------------------------------------1--------1----2/5--2-4-2-4-|
B|---2-------2---0----------------------------------------2p0-------------------|
G|-------2---------2-2---2-----------2-------------4----------------------------|
D|-0------0----------4---2----------2------------3------------------------------|
A|---------------------------0---4/5-----0---1/4--------------------------------|
E|------------------------------------------------------------------------------|

For the chorus, it's hard to hear the background, but it sounds like the guitar is doing 
this repeated a few times:

e|------------------------------------------------------------------------------|
B|------------------------------------------------------------------------------|
G|-----1h2--1-------1h2--1------1h2--1------1h2--1------------------------------|
D|-0------------0-----------2-----------2---------------------------------------|
A|------------------------------------------------------------------------------|
E|------------------------------------------------------------------------------|

Cheers!

************************************

| /   slide up
| \   slide down
| h   hammer-on
| p   pull-off

************************************
Tap to rate this tab
# A B C D E F G H I J K L M N O P Q R S T U V W X Y Z