Song name
# A B C D E F G H I J K L M N O P Q R S T U V W X Y Z

The Word Alive - The Devil Inside tab

Band: The Word Alive
Song: The Devil Inside


Tabbed by: heyitsthemokid

Tuning:Drop D

Okay so i told people I'd do this in April...
But i slacked off and didn't do it for 2 months.
So I'm sorry people :| Well here it is, or at least most of it.
I'll finish the bridge and outro soon.

INTRO:

e|------------------------13\--------------------------|
B|-------11~--------------17\--------------------------|
G|-------14~-------------------------------------------|
D|--000--------------000---------------000--3--000--3--| x5
A|--000--------------000---------------000--7--000--7--|
D|--000-------8p7p0--000-------3p0-3p0-000-----000-----|
    ...              ...               ...     ...
             TH
e|---------------|
B|-----------5~--|
G|-----------5~--|
D|-0~~--000--5~--|
A|-0~~--000------|
D|-0~~--000------|
        ...
VERSE:

I'm to lazy to figure out how many exact times they do this...

e|------------------------|
B|------------------------|
G|------------------------|
D|-88888888\-5-5555-5555--| x2
A|-88888888\-5-5555-5555--|
D|-88888888\-5-5555-5555--|
   ........  . .... ....

CHORUS:

Guitar 1: Use delay
e|-17-------------17------18/20-18/20--|
B|-----18--17-15------15---------------|
G|-------------------------------------|
D|-------------------------------------|
A|-------------------------------------|
D|-------------------------------------|

e|--17---------------------------|
B|------18--17-15-17--15-18-17~--|
G|-------------------------------|
D|-------------------------------|
A|-------------------------------|
D|-------------------------------|

Guitar 2:
e|---------------------|
B|---------------------|
G|---------------------|
D|-8---------5---------| x2
A|-8--(x16)--5--(x16)--|
D|-8---------5---------|

VERSE:

e|------------------------|
B|------------------------|
G|------------------------|
D|-88888888\-5-5555-5555--| x2
A|-88888888\-5-5555-5555--|
D|-88888888\-5-5555-5555--|
   ........  . .... ....

e|---------------------------------|
B|---------------------------------|
G|---------------------------------|
D|--000000---8---000000----00--00--| x2
A|--000000--12b--000000----00--00--|
D|--000000-------000000----00--00--|
    ......       ......    ..  ..

CHORUS

Guitar 1: Use delay
e|-17-------------17------18/20-18/20--|
B|-----18--17-15------15---------------|
G|-------------------------------------|
D|-------------------------------------|
A|-------------------------------------|
D|-------------------------------------|

e|--17---------------------------|
B|------18--17-15-17--15-18-17~--|
G|-------------------------------|
D|-------------------------------|
A|-------------------------------|
D|-------------------------------|

Guitar 2:
e|---------------------|
B|---------------------|
G|---------------------|
D|-8---------5---------| x2
A|-8--(x16)--5--(x16)--|
D|-8---------5---------|

BRIDGE:
Tap to rate this tab
 
# A B C D E F G H I J K L M N O P Q R S T U V W X Y Z