The Word Alive - Battle Royale tab

Battle royale by The Word Alive.

There are some spots that i couldnt figure out but i will give you
what i got.
And i will have other parts soon!:)

Tuning: dropD

Let ring throughout and play twice.

e|---------------------------------------------------------------------|
B|--------6-------------6-------------11-----------------15------------|
G|-----9----9-----9-------9-------14-----14------14--------------------|
D|--7----------------7-------------------------------------------------|
A|--0----------8-------------/13--------------12-----12-----12---------|
D|---------------------------------------------------------------------|


e||------------------------------------------------------------------------|
B||-----------------------------------------10--10101010------10--10101010-|
G||-----------------------------------------7---7-7-7-7-------7---7-7-7-7--|
D||-----------------------------------------8---8-8-8-8-------8---8-8-8-8--|
A||--0-0-8-0---------------------------0--0--------------0--0--------------|
D||--0-0-8-0--0-8-11-8-0-7-8-7-5-------0--0---0----------0--0---0----------|
Repeat 3 more times.                          *                 *
and then this part is really off. If you have a better way message me:)

e||---------------------------------------------------|
B||---------------------------------------------------|
G||---------------------------------------------------|
D||---------------------------------------------------|
A||-0-0-0-0---0-0--0--0-----1-------3---4-------------|
D||-0-0-0-0---0-0--0--0-1-4---4-1-0---0---0-----------|
    * * * *   * *  *  * * *   * * * * *   *

e||-------------------------------------------------|
B||-------------------------------------------------|
G||-------------------------------------------------|
D||-------------------------------------------------|
A||-0-0-0-0---0-0--0--0-------1h4p1p0-1p0-----------|
D||-0-0-0-0---0-0--0--0--1-4--------------4-3-1-0---|
    * * * *   * *  *  *  * *              * * * *
e||---------------------------------------|
B||--------------------6-----6-----6------|
G||----------------------9-----9-----9----|
D||------------------------7-----7-----7--|
A||-0-0-0-0---0-0--0----------------------|
D||-0-0-0-0---0-0--0----------------------|
    * * * *   * *  *   * * * * * * * * *
e||-------------------------------------------------------|
B||--------------------11-------11-------11--------11-----|
G||-----------------------14-------14-------14-----14-----|
D||--------------------------12-------12-------12--12-----|
A||-0-0-0-0---0-0--0--------------------------------------|
D||-0-0-0-0---0-0--0--------------------------------------|

Catchy part:) i think its pretty close.


e|----------|-------------------------------------------------------------|
B|----------|----------------------------------10----10----10----------13-|
G|----------|------------------------3------------7-----7-----7---6s10----|
D|----------|------7---------7-----7---7------------8-----8-----8---------|
A|----------|--------------0-----5-------5--------------------------------|
D|-12-10-0--|--0-8---8-7-3-----3------------0-----------------------------|
             repeat this again.                 * * * * * * * * *


e|--------------------------------------------------------------------|
B|--8-8----------1111----------1414----------1717---------------------|
G|--7-7----------1010----------1313----------1616---------------------|
D|--5-5----------8-8-----------1111----------1414---------------------|
A|--------------------------------------------------------------------|
D|------00000000------00000000------00000000------19/-----------------|
        ********      ********      ********
Chorus thingy.

  palm mute all of these.
e|-------------------------------------------------------------|
B|-------------------------------------------------------------|
G|-------------------------------------------------------------|
D|-------------------------------------------------------------|(2x)
A|--000-000-000-000-000-000--00000000--------------------------|
D|--000-000-000-000-000-000--00000000--------------------------|

Trem pick these.

e|--10--12--13--8--20--17--15--17----------------------------|
B|-----------------------------------------------------------|
G|-----------------------------------------------------------|
D|-----------------------------------------------------------|
A|-----------------------------------------------------------|
D|-----------------------------------------------------------|

e|-------------------------------------------------------------|
B|-------------------------------------------------------------|
G|-------------------------------------------------------------|
D|-------------------------------------------------------------|(2x)
A|--000-000-000-000-000-000--00000000--------------------------|
D|--000-000-000-000-000-000--00000000--------------------------|

And these.

e|--10-12-13-8-20-17-15-17-18-17-15-17-22----------------|
B|-------------------------------------------------------|
G|-------------------------------------------------------|
D|-------------------------------------------------------|
A|-------------------------------------------------------|
D|-------------------------------------------------------|

This is kinda wrong.

e|---------------------8p5-------------------------------|
B|-------5-6--5h6p5--------6p5---5h6p5---8p5-6p5---------|
G|---7--------------7p5--------7------7p5-------7p5------|
D|-------------------------------------------------------|
A|-------------------------------------------------------|
D|-------------------------------------------------------|

SOLO! sound write to me.

Part1

e|--128------------8h12-T15P12p8----------6h10p6--------6h10-T17p10p6-------|
B|-----10--------10-------------10-------8------8------8-------------8------|
G|-------9------9-----------------9-----7--------7----7---------------7-----|
D|--------10--10-------------------10--8----------8--8-----------------8----|
A|----------12-----------------------10------------10-----------------------|
D|--------------------------------------------------------------------------|

e|-----5h9p5-------5h9T14p9p5--------6h10T15p10p6----------8h12T17p12p8---|
B|----7-----7-----7-----------7------8-----------8-------10------------10-|
G|---6-------6---6-------------6----7-------------7-----9----------------9|
D|--7---------7-7---------------7--8---------------8--10------------------|
A|-9-----------9-----------------10-----------------12--------------------|
D|------------------------------------------------------------------------|

Part2

e|--1310--1310--1310--13101310-129--129--129--129T1713T171310--------------|
B|------11----11----11------------10---10---10---------------11----------11|
G|-------------------------------------------------------------10------10--|
D|---------------------------------------------------------------12--12----|
A|-----------------------------------------------------------------13------|
D|-------------------------------------------------------------------------|

e|-T16129------------9T171310--------------T16129----------------------|
B|-------10--------10--------11----------11------10--------------------|
G|---------9------9------------10------10----------9-------------------|
D|----------11--11---------------12--12-------------11-----------------|
A|------------12-------------------13-----------------12---------------|
D|---------------------------------------------------------------------|

Next part

Repeat with song.
   (all palm muted)
e|----------------------------------------------------------------|
B|----------------------------------------------------------------|
G|----------------------------------------------------------------|
D|----------------------------------------------------------------|
A|--0000-00---00-00-----------------------------------------------|
D|--0000-00---00-00-----------------------------------------------|

another fun part.

e|----------------------------------------------------------------|
B|----------------------------------------------------------------|
G|----------------------------------------------------------------|
D|---------------------------------------5h8p5--------------------|
A|------------------------------------4h7-----4-------------------|
D|--0--00-00---00--00----0--00-00--5h8----------------------------|

e|----------------------------------------------------------------|
B|----------------------------------------------------------------|
G|----------------------------------------------------------------|
D|----------------------------------------------------------------|
A|---------------------------------4v-----------------------------|
D|--0--00-00---00--00----0--00-00---------------------------------|

And then the chorus and your done!.

Please if you have found any better way of playing a part help me i worked really
hard on this song.

h=hammeron
p=pulloff
/=slide upward
v=vibrato
T=tap
Tap to rate this tab
 
# A B C D E F G H I J K L M N O P Q R S T U V W X Y Z