Song name
# A B C D E F G H I J K L M N O P Q R S T U V W X Y Z

The Word Alive - How To Build An Empire tab

-------------------------------------------------------------------------------
			     How to build an empire - The word alive
-------------------------------------------------------------------------------
Tabbed by:zwhammack
Email:atv487@aol.com

Tuning:DropD

This is my 2nd tab by the word alive. And you can listen to the song to
get the timing right on notes. enjoi

e|----------------------------------------------13-15-15br-----13h15p13--------------------------|
B|-13p10------------------------------------/15------------------------15-------13/15------------|
G|-------12p10----10-12b--10h12p10---------------------------------------------------------------|
D|-------------12------------------12------------------------------------------------------------|
A|-----------------------------------------------------------------------------------------------|
E|-----------------------------------------------------------------------------------------------|

e|-----------------------------------------------------------------------------------------------|
B|-/10h13p10--10h13p10-------------------------------------14------------------------------------|
G|----------12--------12-10h12p10-------10--------10h12p10----------10h12p10--------10-----------|
D|-------------------------------12----------12-----------------------------12p10h12-------------|
A|-----------------------------------------------------------------------------------------------|
E|-----------------------------------------------------------------------------------------------|

Harmony!
Gt1
e|----------10h13---13p10-------------------10h13---13p10-----13p10h13/16\13p10------------------|
B|--------11-------------11---------------11-------------13p10------------------13p10------------|
G|------10-----------------10-----------10-------------------------------------------------------|
D|----12---------------------12-------12---------------------------------------------------------|
A|--13-------------------------13---13-----------------------------------------------------------|
E|-----------------------------------------------------------------------------------------------|
Gt2
e|--------10h13T17---17p13p10---------------10h13T17\--------------------------------------------|
B|------11-------------------11-----------11-----------------------------------------------------|
G|----10-----------------------10-------10-------------------------------------------------------|
D|--12---------------------------12---12---------------------------------------------------------|
A|-----------------------------------------------------------------------------------------------|
E|-----------------------------------------------------------------------------------------------|

e|-----------------------------------------------------------------------------------------------|
B|-----------------------10--------11------------------------------------------------------------|
G|---10--------12--------------------------------------------------------------------------------|
D|-----------------------------------------------------------------------------------------------|
A|-----------------------------------------------------------------------------------------------|
E|-----------------------------------------------------------------------------------------------|
And that is it!
thank you!


************************************

| /   slide up
| \   slide down
| h   hammer-on
| p   pull-off
| ~   vibrato
| +   harmonic
| x   Mute note
| b   Bend
| pb  Pre-bend
| br  Bend release
| pbr Pre-bend release
| brb Bend release bend

************************************
Tap to rate this tab
 
# A B C D E F G H I J K L M N O P Q R S T U V W X Y Z