Song name
# A B C D E F G H I J K L M N O P Q R S T U V W X Y Z

The Word Alive - Consider It Mutual tab

Consider It Mutual
The Word Alive
Deceiver

Dropped C Tuning

Sorry for only doing the intro, it's all I could figure out of the
song but I know it's 100% accurate

D|--------------------------13-------------------------------13------|
A|---------------6-------------15-----------------6-------------15---|
F|-----------5h7---7~---/12-------------------5h7---7~---/12---------|
C|-------5h7------------------------------5h7------------------------|
G|---5h8------------------------------5h8----------------------------|
C|-0--------------------------------0--------------------------------|

D|-----15p10-10h12---------------12~--13p12----10p8----------|
A|-----------------10~-----------10~--------13------10---\8--|
F|-------------------------------10~-------------------------|
C|-----------------------------------------------------------|
G|-----------------------------------------------------------|
C|-0~--------------------888-5~------------------------------|

*=palm mute
/=slide up
\=slide down
~=hold note
(nh)=harmonic
(ph)=pinch
h=hammer on
p=pull off
b=bend
Tap to rate this tab
# A B C D E F G H I J K L M N O P Q R S T U V W X Y Z