Song name
# A B C D E F G H I J K L M N O P Q R S T U V W X Y Z

The Working Title - Nothing Less Radiant tab

Still hoping WT makes it big. Use plenty of delay, like most of their songs.

Intro:
E:------------------------|
B:---------------------11-|
G:-12-10-8----12-10-7-8---| X2
D:--------10--------------|
A:------------------------|
E:------------------------|
last time slide up at the end

Verse:
E:----------------------|
B:----3-----3----6----6-|
G:----------------------| X4
D:--5-----5----5----5---|
A:-3-----3----6----6----|
E:------3---------------|

Prechorus:
hold out Cm

Chorus:
E:-------------------------------------------------------------------|
B:-------------------------------------------------------------------|
G:-----------------------------------5-5-5-5-5-5-5-5-----------------| X2
D:-6-6-6-6-6-6-6-6--8-8-8-8-8-8-8-8--5-5-5-5-5-5-5-5-5-5-5-5-5-5-5-5-|
A:-6-6-6-6-6-6-6-6--8-8-8-8-8-8-8-8--3-3-3-3-3-3-3-3-5-5-5-5-5-5-5-5-|
E:-4-4-4-4-4-4-4-4--6-6-6-6-6-6-6-6------------------3-3-3-3-3-3-3-3-|

Bridge:
E:-------------------------|
B:-------------------------|
G:-------------------------| X2
D:-8-8-8-8-8-8-7-7-7-7-7-7-|
A:-------------------------|
E:-------------------------|

Cm F G# Bb
F(m?) Gm Cm Bb


That's it. I tabbed this pretty quickly so tell me if there are any mistakes.
Tap to rate this tab
# A B C D E F G H I J K L M N O P Q R S T U V W X Y Z