Song name
# A B C D E F G H I J K L M N O P Q R S T U V W X Y Z

The Working Title - Love In A Box tab

Capo on 8th fret

Background chords G - F - E - C

      G   F   E   C
E-----3---2---0---0-|
A-----2---0---2---3-|
D-----0---0---2---2-|
G-----0---2---0---0-|
B-----3---3---3---3-|
e-----3---3---3---3-|

Mostly the background is pack/slapping.  Pretty much only hit the E,B, and e strings for 
the G and F chords and only hit the A, B, and e chords for E and C.  Although it sounds 
just fine with strumming.


Lead guitar:

Intro/Fill

E-------------------------------------------------------------|
A-------------------------------------------------------------|
D-------------------------------------------------------------|
G----0----0--2--0--2--0--4--0--4--0---------x--2--0--2--0-----|
B--3----3----------------------------1~0----------------------|
e-------------------------------------------------------------|

1st Verse:

N/A

Chorus

E----------------------------------------------------------|
A----------------------------------------------------------|
D----------------------------------------------------------|
G----------------------------------------------------------|
B----3---3---3---3---3---3---3---3---3---3---3---3---------|
e--3---3---3---2---2---2---0---0---0---2---2---2-----------|

2nd Verse (or 3rd if you count the 1st one as 2)

Strumming pattern on:

E------------------|
A------------------|
D------------------|
G------------------|
B--3---3---3---3---|
e--3---2---0---2---|

Breakdown:

E------------------------------------|
A------------------------------------|
D------------------------------------|
G------------------------------------|
B--------3-1-3-1-0---------3-1-3-0---|
e--3-2-0------------3-2-0------------|

E------------------------------------|
A------------------------------------|
D------------------------------------|
G------------------------------------|
B--------3-1-3-1-0---------3---------|
e--3-2-0------------3-2-0----2-3-5---|


Enjoy and let me know if you think this is incorrect.  Thanks
Tap to rate this tab
# A B C D E F G H I J K L M N O P Q R S T U V W X Y Z