Song name
# A B C D E F G H I J K L M N O P Q R S T U V W X Y Z

The World Inferno Friendship Society - I Just Make Faces tab

----------------------------------------------------------------------------
        I JUST MAKE FACES - The World/Inferno Friendship Society
----------------------------------------------------------------------------
Tabbed by: mmmmetalcore
Email:sewipf@gmail.com

Tuning: E A D G B E

INTRO

Guitar: 
B A

Piano Part:
e|--------------------------------------------------------------|
B|-12--------------12---------------10-9---10-9---10-9---10-9---|
G|----11-9----9-11----11-9----9-11-------9------9------9------9-| x4
D|---------13--------------13-----------------------------------|
A|--------------------------------------------------------------|
E|--------------------------------------------------------------|

Horn Part:
e|---------------9---------------9-9-10------------------------------------|
B|----9-10-12-12---10----9-10-12--------10---------------------------------|
G|-11-----------------11---------------------------------------------------|
D|-------------------------------------------------------------------------|
A|-------------------------------------------------------------------------|
E|-------------------------------------------------------------------------|

E
The public gets what they deserve, not what they demand 
E
Showing up unhaltingly with cash in hand 
E
Daydreams made light and light made dance 
E
Thrown up against pheromones and romance 

B A

E
More than anyone else, I blame actors 
E
They're just begging to be in this shit 
E
So greedily fucking up culture 
E
Dying for a big part in a hit 

A
I don't act, I just make faces 
E
I don't act, I just make faces 
A
I don't act, I just make faces 
F#5           B5
Half-caste or fully cast-off lies

E
Our grand passion in small comedy 
E
Our petty hurt impassioned high 
E
Small talk in a smaller community 
E
Conflated hopes they finished mine 

A
I don't act, I just make faces 
E
I don't act, I just make faces 
A
I don't act, I just make faces 
F#5           B5
Half-caste or fully cast-off lies

| /  slide up
| \  slide down
| h  hammer-on
| p  pull-off
| ~  vibrato
| +  harmonic
| x  Mute note
============================================================================
Tap to rate this tab
 
# A B C D E F G H I J K L M N O P Q R S T U V W X Y Z