Song name
# A B C D E F G H I J K L M N O P Q R S T U V W X Y Z

The World Is A Beautiful Place I Am No Longer Afra - To The Janitor To The King chords

Highlighted       Show chord diagrams
TO THE JANITOR, TO THE KING - The World is a Beautiful Place and I am No Longer Afraid 
to Die
-----------------------------------------------------------------------------

Tabbed by: Mean Mr Mustard
Email: Gotchristo@comcast.net

Tuning: Standard

Excellent song, very fun to play with an acoustic.
http://topshelfrecords.org/tsr2/_pages/artist_the_world_is.php


INTRO: (see tab below)
Bb         C      x4


VERSE:
                Bb              C
So there's this party down at the pier and we can
Bb                             C
go there if you want or just hang here.
                Bb                 C
Cause I have discovered it's not the place
          Bb                     C        (fill 1)
or the surroundings but what you make of it.


INTERLUDE: (see tab below)

then INTRO: (see tab below)


VERSE:
              Bb                C
Just long eye lashes and retro dresses.
            Bb                      C
Current situations but I'm not into it.
             Bb          C
Only so many days to flee from the possible awfulness
       Bb                  C                 (fill 1)
and to make your life great if you want that.


GUITAR SOLO: (see tab below)



INTRO
  Bb                            C
e|----1--------0---------------|---3-------1----------------|--|
B|-------------------1---3-----|------------------1---3-----|--|
G|-3---------3-------------3---|---------0------------------|x4|
D|-3-------3-------3---------3-|-2-----2--------2---------2-|--|
A|-1-----1-------1-------------|-3---3--------3-----3---3---|--|
E|-----------------------------|----------------------------|--|
*Repeat the C part twice after the fourth repeat


Fill 1
  C
e|---------3---3-----|
B|-5---5-----5-------|
G|---5---5-----------|
D|-5-5-5-5-5-5-5-----|
A|-3-3-3-3-3-3-3-----|
E|-------------------|



INTERLUDE: (just play some C chord in this pattern)
  C
e|-------------------------------|
B|----5--------------------------|
G|--------5-----5-----5---5------|
D|----------5-----5---------5----|
A|-3----------3-----3---3-----3--|
E|-------------------------------|
 |
e|-------------------------------|
B|----5--------------(1)---------|
G|----------0---3-----2----------|
D|-------------------------------|
A|-------------------------------|
E|-------------------------------|
 *play the 1 every 2nd repeat instead of the 2



GUITAR SOLO: (Its played over the two interlude parts, and goes something like this)
 C
e|---------------------------------------------------|
B|---------------------------------------------------|
G|---------------------------------------------------|
D|-2\\5\\7~~~------7\5\7~~10~~~-----7h10h7h10-10-----|
A|------------------------------------------------8--|
E|---------------------------------------------------|

e|-------------------------------------------------------------|
B|----------------------------1010101010-10~~~-10101010-8\\10--|
G|-------------------------------------------------------------|
D|---------10--7\\8-7-5~~~-7-----------------------------------|
A|-(8)~~~~~----------------------------------------------------|
E|-------------------------------------------------------------|

e|----------------------------------------------------|
B|--1010101010-10~~~-10101010-8-\-3-------------------|
G|----------------------------------------------------|
D|----------------------------------2\5\7~~~~-10~~~~--|
A|----------------------------------------------------|
E|----------------------------------------------------|
 Yeah, its something like that. Theres lots of slides and some bends, but using these 
notes, you should be able to figure it out or improvise something nice
Tap to rate this tab
# A B C D E F G H I J K L M N O P Q R S T U V W X Y Z