Song name
# A B C D E F G H I J K L M N O P Q R S T U V W X Y Z

The World Is A Beautiful Place I Am No Longer Afra - Low Light Assembly tab

Verse
   Esus2       D#m         B             G#m7
e|---------------------------------------------------------------|
B|---------------------------------------------------------------|
G|---------------------------------------------------------------|
D|--4--4--4--4--4--4--4--4--4--4--4--4--4--4--4--4---------------|
A|-7--7--7--7--6--6--6--6----------------------------------------|
E|-------------------------7--7--7--7--4--4--4--4----------------|

Chorus (breathe in deep...)
    Emaj7                                           G#maj7       F#m6       Emaj7 
e|----------------------------------------------------------------------------------------------|
B|----------------------------------------------------------------------------------------------|
G|----------------------------------------------------------------------------------------------|
D|-----1------1-----1-----1-----1-----1-----1----1------4-----4----4-----4------1----------1----|
A|---2-----2-----2-----2-----2-----2-----2-----2-----6----6------2----2-----2-----2---4--2-----2|
E|-0--0--0--0--0--0--0--0--0--0--0--0--0--0--0--0--4--4--4--4--2--2--2--2--0--0--0--0--0--0--0--|

Outro (we are all the same...)

  Emaj7   F#m6   Emaj7
e|---------------------------------------------------------------|
B|---------------------------------------------------------------|
G|---------------------------------------------------------------|
D|-1------4------1-----------------------------------------------|
A|-2------2------2-----------------------------------------------|
E|-0------2------0-----------------------------------------------|

Verse x4
Chorus
Verse x4
Outro

we can't change
this place the way
it changes us
the parking lot
where we lay
is more than home now

breathe
in
deep
please
breathe
in
deep

the light bleeds through
the window pane
into our eyelids
our bodies
drown in sheets
anchored, exhausted
count the stains
one by one
up on the ceiling
the echoes race
around the room
they sing together

we
are all
all the same
Tap to rate this tab
# A B C D E F G H I J K L M N O P Q R S T U V W X Y Z