Song name
# A B C D E F G H I J K L M N O P Q R S T U V W X Y Z

The World Is A Beautiful Place I Am No Longer Afra - Ultimate Steve tab

INTRO - 

A||--7--|| repeated

MAIN BUILD UP (very slight variations)

    Q    Q    Q    Q       E  E  E  E  E.  E.  E     Q.     E  H         
E||----------------------|-------------------------|---------------------|
B||----------------------|-------------------------|---------------------|
G||----------------------|-------------------------|---------------------|
D||-------6----7----9----|--L--9--9--9--9---7---6--|---------6--6--------|
A||--7-------------------|-------------------------|--9------------------|
E||----------------------|-------------------------|---------------------|


  Q.     S S E.  E.  E     E  Q    H        E     E  Q    H        E   
------------------------|----------0--------L--|--L-------0--------L--|
------------------------|-----0----------------|-----7----------------|
------------------------|----------------------|----------------------|
--L------6-6-6----------|----------------------|----------------------|
-----------------9---7--|--L-------------------|----------------------|
------------------------|----------------------|----------------------|


  Q    Q    Q    Q       E  E  E  E  E.  E.  E     Q.     E  H         
----------------------|-------------------------|---------------------|
----------------------|-------------------------|---------------------|
----------------------|-------------------------|---------------------|
-------6----7----9----|--L--9--9--9--9---7---6--|---------6--6--------|
--7-------------------|-------------------------|--9------------------|
----------------------|-------------------------|---------------------|


  Q.     S S E.  E.  E     E  Q    Q    Q    E     E  Q    Q    Q.      
------------------------|----------0---------0--|--L-------0-----------|
------------------------|-----0---------7-------|-----0---------7------|
------------------------|-----------------------|----------------------|
--L------6-6-6----------|-----------------------|----------------------|
-----------------9---7--|--L--------------------|----------------------|
------------------------|-----------------------|----------------------|


  W                                                          
-------------------|-------------------|-------------------||
-------------------|-------------------|-------------------||
-------------------|-------------------|-------------------||
-------------------|-------------------|-------------------||
--7----------------|-------------------|-------------------||
--0----------------|-------------------|-------------------||


POST CRESCENDO 

-------------------|-------------------|-------------------||
-------------------|-------------------|-------------------||
16-14-13----13-----|16-14-13-----------|16-13--------------||
---------16-----14-|---------16-14-----|-------16-14-------||
-------------------|-------------------|-------------------||
-------------------|-------------------|-------------------||


ENDING
-------------------|-------------------|-------------------||
10-----------------|9------------------|-------------------||
-------------------|-------------------|9~~----------------||
-------------------|-------------------|-------------------||
-------------------|-------------------|-------------------||
-------------------|-------------------|-------------------||
Tap to rate this tab
# A B C D E F G H I J K L M N O P Q R S T U V W X Y Z