Song name
# A B C D E F G H I J K L M N O P Q R S T U V W X Y Z

The World Is A Beautiful Place I Am No Longer Afra - Heartbeat In The Brain tab

(/) Slide Up  (\) Slide Down  (h) Hammer On  (p) Pull Off  (b) Bend (r) Release (v) Vibrato

My first attempt at a tab, I did this along with "blank #9" but separated them into two 
different tracks as they are on the record. Not 100% accurate but pretty close, there is 
a third guitar at some points I believe but I couldn't figure that part out. Enjoy!
  - Alex

Song: Heartbeat in the Brain
Artist: The World is a Beautiful Place & I am no Longer Afraid to Die
Album: Whenever, If Ever
Year: 2013


[0:00]
Intro (palm muted)

   x8    x8  x8    x8  x12   x4  x8
E|--------------------------------- |
B|--------------------------------- |
G|--9----13---9----13---11---13---9 |
D|--9----13---9----13---11---13---9 |
A|--7----11---7----11---9----11---7 |
E|--------------------------------- | x2

[0:26]

E|--------------------------------------------------------------------------- |
B|--------------------------------------------------------------------------- |
G|------8---11---8--------8---11---8--------8---11---8--------8---8h9p8---11- |
D|--------------------------------------------------------------------------- |
A|--7-7---7----7---7----7---7----7---7----7---7----7---7----7---7-------7---- |
E|--------------------------------------------------------------------------- | x2

[0:52] (Whenever you find home...)

E|-------------------------          --------------------- |
B|-------------------------          --------------------- |
G|--11-11-11-11-11-11p9-9-8          --------------------- |
D|------------------------- x3, then --9-9-9-9-11-11-11-11 |
A|-------------------------          --------------------- |
E|-------------------------          --------------------- | x2

[1:06] (Trying to find a way out...)

Guitar 1:
   listen for strumming pattern
E|--------------------------------- |
B|--------------------------------- |
G|--9----13---9----13---11---13---9 |
D|--9----13---9----13---11---13---9 |
A|--7----11---7----11---9----11---7 |
E|--------------------------------- | x2

Guitar 2:
E|-------------------------          --------------------- |
B|-------------------------          --------------------- |
G|--11-11-11-11-11-11p9-9-8          --------------------- |
D|------------------------- x3, then --9-9-9-9-11-11-11-11 |
A|-------------------------          --------------------- |
E|-------------------------          --------------------- | x4

[1:32-1:39] (When will I see you again)

No idea, sorry guys


[1:40] (I know a few chords...)

  listen for strumming pattern
E|--------- |
B|--------- |
G|--8----8- |
D|--9----9- |
A|--9----7- |
E|--7----0- | x4, hold last note on last repeat


[2:07]
  I'm unsure when this starts because it happens as the last note of the previous 
section is being held out, listen for timing.

E|-------- |
B|-------- |
G|--11---- |
D|-----9-- |
A|-------- |
E|-------- | x8

[~2:14]

E|----------------------------- |
B|----------------------------- |
G|--11---11---8h9p8---------11- |
D|-----9----9-------9h11p9----- |
A|----------------------------- |
E|----------------------------- | x4

[2:27]

E|------------------------------------------------------------------- |
B|------------------------------------------------------------------- |
G|----------8--------------------------------8----------------------- |
D|----9---9---9-9-9-9-9-9-9-9-9-9-9----9---9---9---9-9-9-9-9-9-9-9-9- |
A|--7---7----------------------------7---7-------7------------------- |
E|------------------------------------------------------------------- |

[2:42]

E|---------------------------------------------------------------------- |
B|---------------------------------------------------------------------- |
G|------------8----------------11----------------9p8---8---------------- |
D|-----9----9---9----9---9---9----9----9---9---9-----9---9-9-9-9-9-9-9-9 |
A|--11---11-------11---9---9--------9----7---7-------------------------- |
E|---------------------------------------------------------------------- |

[2:54] (If your arms are just felt...)

E|----------------------------- |
B|----------------------------- |
G|--11---11---8h9p8---------11- |
D|-----9----9-------9h11p9----- |
A|----------------------------- |
E|----------------------------- | x4

[3:06]

E|------------------------------------------------------------------- |
B|------------------------------------------------------------------- |
G|----------8--------------------------------8----------------------- |
D|----9---9---9-9-9-9-9-9-9-9-9-9-9----9---9---9---9-9-9-9-9-9-9-9-9- |
A|--7---7----------------------------7---7-------7------------------- |
E|------------------------------------------------------------------- |

(Never felt like this...)
E|---------------------------------------------------------------------- |
B|---------------------------------------------------------------------- |
G|------------8----------------11----------------9p8---8---------------- |
D|-----9----9---9----9---9---9----9----9---9---9-----9---9-9-9-9-9-9-9-9 |
A|--11---11-------11---9---9--------9----7---7-------------------------- |
E|---------------------------------------------------------------------- |

[3:34] (If your arms become smoke...)

E|----------------------------- |
B|----------------------------- |
G|--11---11---8h9p8---------11- |
D|-----9----9-------9h11p9----- |
A|----------------------------- |
E|----------------------------- | x4

[3:47]

E|------------------------------------------------------------------- |
B|------------------------------------------------------------------- |
G|----------8--------------------------------8----------------------- |
D|----9---9---9-9-9-9-9-9-9-9-9-9-9----9---9---9---9-9-9-9-9-9-9-9-9- |
A|--7---7----------------------------7---7-------7------------------- |
E|------------------------------------------------------------------- |

[4:00] (Shouldn't feel like this...)

E|---------------------------------------------------------------------- |
B|---------------------------------------------------------------------- |
G|------------8----------------11----------------9p8---8---------------- |
D|-----9----9---9----9---9---9----9----9---9---9-----9---9-9-9-9-9-9-9-9 |
A|--11---11-------11---9---9--------9----7---7-------------------------- |
E|---------------------------------------------------------------------- |

[4:14]

Guitar 1:
E|-------------------------- |
B|-------------------------- |
G|-------------------------- |
D|--7--7--7--7--7-9-9--9--9- |
A|--7--7--7--7--7-9-9--9--9- |
E|--5--5--5--5--5-7-7--7--7- |  x16, same riff at [5:06] with different pattern

Guitar 2:
E|--11----------11----------11----------14----------- |
B|-----12----12----12----12----12----12----12-----12- |
G|--------11----------11----------11-----------11---- |
D|--------------------------------------------------- |
A|--------------------------------------------------- |
E|--------------------------------------------------- | x4

[5:06] (G2 only)

E|--11h12p11---------11h12p11--------14-----------11h12p11--- |
B|------------12--------------12---------12-12-12----------12 |
G|----------------------------------------------------------- |
D|----------------------------------------------------------- |
A|----------------------------------------------------------- |
E|----------------------------------------------------------- | x2


Please post any corrections
Tap to rate this tab
# A B C D E F G H I J K L M N O P Q R S T U V W X Y Z