Song name
# A B C D E F G H I J K L M N O P Q R S T U V W X Y Z

The Wrights - Evie Part 3 tab

Evie Part 3-The Wrights

Key
/=slide up
\=Slide down
#.=play this note short
~=tremolo
^=Bend up
V=Bend Down
"=strum and make your hand go up and down the neck, listen for what i mean



Intro
e|---------------------------------------------------|
B|---------------------------------------------------|
G|-6-6-8-8-9-9-11-11-13-13-13-13-11-13-13-13-11-9-8~-|
D|-x-x-x-x-x-x-x--x--x--x--x--x--x--x--x--x--x--x-x--|
A|-4-4-6-6-7-7-9--9--11-11-11-11-9--11-11-11-9--7-6~-|
E|---------------------------------------------------|
(do that twice, both Guitars)

Verse
   C#m		       A		    F#m
e|-4-------------------5--------------------2------------------------|
B|-5-------------------5--------------------2------------------------|
G|-6-------------------6--------------------2------------------------|
D|-6-------------------7--------------------4------------------------|
A|-4-------------------7--------------------4------------------------|
E|-------------------7-5------------------4-2------------------------|
When I woke..World    Longing to.....Girl   I had this feeling....be-(Do 
Fill#1)

   C#m                 A                    F#m
e|-4-------------------5--------------------2------------------------|
B|-5-------------------5--------------------2------------------------|
G|-6-------------------6--------------------2------------------------|
D|-6-------------------7--------------------4------------------------|
A|-4-------------------7--------------------4------------------------|
E|-------------------7-5------------------4-2------------------------|
  all of a ......am    Seems so..understand   each passing......from me-(Do 
Fill#2)

    Fill#1
e|-----------------------|     |---------------------------|
B|-----------------------|     |---------------------------|
G|-6---6--4-6--8~-6--4-6-|     |-6---6--4-6---8--9--11-13--|
D|-x---x--x-x--x--x--x-x-|     |-x---x--x-x---x--x--x--x---|
A|-4---4--2-4--6~-4--2-4-|     |-4---4--2-4---6--7--9--11--|
E|-----------------------|     |---------------------------|


Chorus
   E           C#m         F#m         B
e|-0--0--0--0--4--4--4--4--2--2--2--2--2--2--2--2--|
B|-0--0--0--0--5--5--5--5--2--2--2--2--4--4--4--4--|
G|-1--1--1--1--6--6--6--6--2--2--2--2--4--4--4--4--|
D|-2--2--2--2--6--6--6--6--4--4--4--4--4--4--4--4--|    (that 2 times)
A|-2--2--2--2--4--4--4--4--4--4--4--4--2--2--2--2--|    (but on the second)
E|-0--0--0--0--------------2--2--2--2--------------|    (time skip the B and 
do fill#1)
before i know it im losing you, losing you, losing you




Verse 2

   C#m		       A		    F#m
e|-4-------------------5--------------------2------------------------|
B|-5-------------------5--------------------2------------------------|
G|-6-------------------6--------------------2------------------------|
D|-6-------------------7--------------------4------------------------|
A|-4-------------------7--------------------4------------------------|
E|-------------------7-5------------------4-2------------------------|
There's no...... say   One's born.......day  Just.............you can do-(Do 
Fill#1)

   C#m                 A                    F#m
e|-4-------------------5--------------------2------------------------|
B|-5-------------------5--------------------2------------------------|
G|-6-------------------6--------------------2------------------------|
D|-6-------------------7--------------------4------------------------|
A|-4---------------4---7--------------------4------------------------|
E|-------------------7-5----------------5-4-2------------------------|
How could........wrong   Once in......along   I can't.......to do-(Do 
Fill#2)


Chorus-Skip B chord second time and do intro riff twice

Bridge-Both guitars, Rhythm does chords lead does lead bits

A                       E                     A                       E
I can't believe this is happening-(Fill#3 now)I can't believe this is 
real-(fill#3)

A                          E                       A               E
I don't believe i can take anymore-(Fill#4) Well I Can't Carry On, No, I 
can't carry on


      Fill number 3              Fill#4
e|--/4-2-0-|  |---------|    |-4.4.4.4~-|
B|---------|  |--/9-7-5-|    |----------|
G|---------|OR|---------|    |----------|
D|---------|  |---------|    |----------|
A|---------|  |---------|    |----------|
E|---------|  |---------|    |----------|


Verse 3/solo

Guitar 1/Rhthm guitar does regular verse part

Guitar 2/Lead guitar strums this chord, listen for timing

e|-9-|
G|-x-|
B|-6-|
D|---|

Then for the second part Guitar 2 does this awesome solo, I've broken it 
into phrases to make it easier to learn

e|--------9-----9-------------------|-9--------------------------|-12^^--14-12-------12----------------------|
B|--------9--12-9--12-----------9\--|-12^^-V12--9----9----9----9-|-------------14-13----14-13-12----12-------|
G|---------------------11^-V11--9\--|-------------12---12---12---|-------------------------------11----11-14-|
D|-0-9^^----------------------------|----------------------------|-------------------------------------------|
A|----------------------------------|----------------------------|-------------------------------------------|
E|----------------------------------|----------------------------|-------------------------------------------|

e|----12--14^^-14^^---11---12---14---14---16---|
B|-14-----------------13^^-14^^-16^^-16^^-19^^-|
G|---------------------------------------------|
D|---------------------------------------------|
A|---------------------------------------------|
E|---------------------------------------------|

Last Chorus
   E           C#m         F#m         B
e|-0--0--0--0--4--4--4--4--2--2--2--2--2--2--2--2--|
B|-0--0--0--0--5--5--5--5--2--2--2--2--4--4--4--4--|
G|-1--1--1--1--6--6--6--6--2--2--2--2--4--4--4--4--|
D|-2--2--2--2--6--6--6--6--4--4--4--4--4--4--4--4--|(that x3)
A|-2--2--2--2--4--4--4--4--4--4--4--4--2--2--2--2--|
E|-0--0--0--0--------------2--2--2--2--------------|

   E           C#m         F#m         B
e|-0--0--0--0--4--4--4--4--2--2--2--2-|
B|-0--0--0--0--5--5--5--5--2--2--2--2-|
G|-1--1--1--1--6--6--6--6--2--2--2--2-|
D|-2--2--2--2--6--6--6--6--4--4--4--4-|(thatx1)
A|-2--2--2--2--4--4--4--4--4--4--4--4-|
E|-0--0--0--0--------------2--2--2--2-|

Outro

e|---------------------------------------------------|
B|---------------------------------------------------|
G|-6-6-8-8-9-9-11-11-13-13-13-13-11-13-13-13-11-9-8~-|
D|-x-x-x-x-x-x-x--x--x--x--x--x--x--x--x--x--x--x-x--|(all thatx4)
A|-4-4-6-6-7-7-9--9--11-11-11-11-9--11-11-11-9--7-6~-|
E|---------------------------------------------------|

Im losing you-strum C#m

Tap to rate this tab
# A B C D E F G H I J K L M N O P Q R S T U V W X Y Z