Song name
# A B C D E F G H I J K L M N O P Q R S T U V W X Y Z

The Wrong Side - Feelin Good tab

The Wrong Side - Feelin' Good
The Wrong Side of The Grave

Tabbed by Greg

Tuning: Drop D

Listen to the song for timing and rhythm.

Riff 1 x

e|-----------------------------|
G|-----------------------------|
B|-----------------------------|
D|---7--5--7--7-7-7------------|
A|---5--3--5--5-5-5--777-8888--|
E|-------------------777-8888--|

Riff 2

e|-----------------------------|
G|-----------------------------|
B|-----------------------------|
D|---77-5-77-7-7-7-------------|
A|---55-3-55-5-5-5--555-6666---|
E|------------------555-6666---|

Riff 3

e|-------------------------------------------------|
G|-------------------------------------------------|
B|-------------------------------------------------|
D|---777-55555--777-555555--777-55555555-----------|
A|---555-33333--555-333333--555-33333333-777-88888-|
E|---------------------------------------777-88888-|

Riff 4 - Same as Riff 3 but palm muted, listen to the song.

e|-------------------------------------------------|
G|-------------------------------------------------|
B|-------------------------------------------------|
D|---777-55555--777-555555--777-55555555-----------|
A|---555-33333--555-333333--555-33333333-777-88888-|
E|---------------------------------------777-88888-|

End

e|------------------------------|
G|------------------------------|
B|------------------------------|
D|---7--------------------------|
A|---5---0~---------------------|
E|-------0~---------------------|
Tap to rate this tab
 
# A B C D E F G H I J K L M N O P Q R S T U V W X Y Z