The Wrong Side - Suckerpunched tab

The Wrong Side - Suckerpunched
The Wrong Side of The Grave

Tabbed by Greg

Tuning: Drop D

Listen to the song for timing and rhythm, the strumming might not be perfect but I'm 
sure you can work it out if you listen to the song.

Riff 1

e|-----------------------------|
G|-----------------------------|
B|-----------------------------|
D|-----------------------------|
A|-333-1-333-333-1-444---------|
D|-333-1-333-333-1-444---------|

riff 2

e|---------------------------------------|
G|---------------------------------------|
B|---------------------------------------|
D|---------------------------------------|
A|-3333333333333-000-444-333-000-44-33---|
D|-3333333333333-000-444-333-000-44-33---|
    .......

end

e|----------------|
G|----------------|
B|----------------|
D|----------------|
A|-4-3-0~---------|
D|-4-3-0~---------|
Tap to rate this tab
 
# A B C D E F G H I J K L M N O P Q R S T U V W X Y Z