Song name
# A B C D E F G H I J K L M N O P Q R S T U V W X Y Z

The Wuds - Inosente Lang Ang Nagtataka tab

Title	: Inosente lang ang nagtataka
Artist	: The Wuds
Tabbed by	: Ferdie Esguerra
Created	: 15January2007
Email	: dhex_armageddon@yahoo.com



Intro: Chords

      F       C    Bb
E|-----------------------------|
B|-----------------------------|
G|---------------5-----3-------|
D|-------3-----5-----3---------|
A|------3----3----1------------|
E|----1------------------------|

     Lead Part
E|------------------------------------------------|
B|------------------------------------------------|
G|------10-10-10-10-10-9----------9-9-------------| 3X
D|---10------------------12-10-10-----10-8--------|
A|------------------------------------------------|
E|------------------------------------------------|

			Wala, wala, wala . . . .
E|------------------------------------------------|
B|------------------------------------------------|
G|----3-----5-------------------------------------|
D|---3-----5------3-----3-----3-----3-------------|
A|--1-----3------3-----3-----3-----3--------------|
E|------------1-----1-----1-----1-----------------|

1St Part:
      (Pause) Wala ka bang nakikita! Pero Ika’y tuwana-tuwa!
E|---------------------|--------------------------|
B|---------------------|--------------------------|
G|------5--------------|----------------3---------|
D|-----5---------------|---------------3----------|
A|----3----------------|--------------1-----------|
E|---------------------|--------------------------|

      Parang kuliling sa pandinig (4X)
E|--------------------------------------------|
B|------8------8------8-----8-----------------|
G|-----8------8------8-----8------------------|
D|----8------8------8-----8-------------------|
A|---6------6------6-----6--------------------|
E|--------------------------------------------|

  (Pause) Kayong nagtataka, nagtataka, nagtataka! (3X)
E|----------------|		     |-------------------|
B|----------------|		     |-------------------|
G|-----------3----|		     |---------8---------|
D|----------3-----|		     |--------8----------|
A|--------1-------|		     |-------6-----------|
E|----------------|		     |-------------------|

Do Intro:

2St Part:
      (Pause) Wala ka bang naririnig! Hindi ka naman nakikinig!
E|---------------------|--------------------------|
B|---------------------|--------------------------|
G|------5--------------|----------------3---------|
D|-----5---------------|---------------3----------|
A|----3----------------|--------------1-----------|
E|---------------------|--------------------------|

      Parang kuliling sa pandinig (4X)
E|--------------------------------------------|
B|------8------8------8-----8-----------------|
G|-----8------8------8-----8------------------|
D|----8------8------8-----8-------------------|
A|---6------6------6-----6--------------------|
E|--------------------------------------------|

  (Pause) Kayong nagtataka, nagtataka, nagtataka! (3X)
E|----------------|		     |-------------------|
B|----------------|		     |-------------------|
G|-----------3----|		     |---------8---------|
D|----------3-----|		     |--------8----------|
A|--------1-------|		     |-------6-----------|
E|----------------|		     |-------------------|

Do Intro (2X)
Chorus:

      Ha!    Inosente lang ang nagtataka (4X)
E|-----------------------------------|
B|-----------------------------------|
G|------------------5--------3-------|
D|-------3--------5--------3---------|
A|------3-------3-------1------------|
E|----1------------------------------|

Repeat 1st part then Chorus:

Last part:

      Wala, wala, wala, wala . . . . 
E|-----------------------------------|
B|-----------------------------------|
G|-----------------------------------|
D|-------3------3------3------3------|
A|------3------3------3------3-------|
E|----1------1------1------1---------|


For my loving wife and son, Rosan & Kurt Cobain
Urrutia boy’s ng Malanday Valenzuela, my former band ‘Selda Singko’
Sa mga naniniwala pa sa akin maraming salamat!
For more info. And suggestion: Email me at dhex_armageddon@yahoo.com

Tap to rate this tab
 
# A B C D E F G H I J K L M N O P Q R S T U V W X Y Z