Song name
# A B C D E F G H I J K L M N O P Q R S T U V W X Y Z

The Wuds - At Nakalimutan Ang Diyos tab

Tabs for song: At nakalimutan ang diyos
Artist: The Wuds
Album: Wuds
Tabbed by: Ferdie Esguerra
Email: Dhex_armageddon@yahoo.com

Tuning: Standard (eBGDAE)
Legend:

Legends:
| /  slide
| h  hammer-on
| p  pull-off

Intro chords: Am-F-G-Am

Guitar Solo: (Chord pattern: C-G-F-C, C-G-F )

e |----------------------------------------3-----------------------5----5h---3------------3--|
B |--- -------------------3----3h-5------------5----5h--3------------------------5-----------|
G |----------- ---5--------------------------------------------------------------------------|
D |------------------------------------------------------------------------------------------|
A |------------------------------------------------------------------------------------------|
E |------------------------------------------------------------------------------------------|

    -----------------------------3------------------------------------------------------|I
    --------------3---3h--5--------5---3---5--/--6---5---3------------------------------|I
    --- ---5-------------------------------------------------------5-------------I------|     2X
    ------------------------------------------------------------------------------------|I
    ------------------------------------------------------------------------------------|I
    ------------------------------------------------------------------------------------|I

Chord pattern: C-G-F-C, C-G-F

e |---------------8---8---7---8---7---5--------------------------------------------------------------|I
B |--- ----------------------------------------8----6----8----8--------------------------------------|I
G |--------------------------------------------------------------------------------------------------|I
D |--------------------------------------------------------------------------------------------------|I
A |--------------------------------------------------------------------------------------------------|I
E |--------------------------------------------------------------------------------------------------|I

   ----------------8----8----7---8----7----5-------------------------------------------------------------------|I
   -------------------------------------------------8----6----5------------------------------------------------|I
   ------------------------------------------------------------------------------------------------------I-----|    2X
   ------------------------------------------------------------------------------------------------------------|I
   ------------------------------------------------------------------------------------------------------------|I
   ------------------------------------------------------------------------------------------------------------|I


“I haven’t seen this posted this tab, so ill post with my own.”
Dedicated to my loving wife and son “ Rosan and Kurt Cobain”
To all my friends out there, my former band “Selda Singko” buong Tropa dyan sa malanday valenzuela
Musta kayo dyan sa urrutia mga pare. Sa mga music lover gud luck “ IT’S TOO LOUD. YOUR TOO OLD!!!”
For any suggestion and comments just email me at” dhex_armageddon@yahoo.com”
Tap to rate this tab
# A B C D E F G H I J K L M N O P Q R S T U V W X Y Z