Song name
# A B C D E F G H I J K L M N O P Q R S T U V W X Y Z

The Wytches - Crying Clown chords

Highlighted       Show chord diagrams
Starts off with just single strums (E is strummed backwards)


Em
I catch my breath finally
G
She keeps me calm and suddenly
B
A relapse on old tricks tryna make a new

Em
In his car she finally
G
Tampers with her sexuality
B
Scratching at each others minds til their in the nude

Em
As for me, my loyalty
G
Is only sold illegally


(Multiple strumming now)

B
To the pantomime crying clown
G
Cry for me whilst 
Em
Upside down
B
Salivating, bloody mouth
G
Or passionately 
Em
Bloody mouth


B
And graveyard girls swinging a bag like a pendulum

E---------------------------------------------|
B---------------------------------------------|
G---------------------------------------------|
D---------------------------------------------|
A--------------3-2-----------------3-2--------|
E--0---0-2-3-0-----3-2-0---0-2-3-0-----3-2----|  x2


(Single strumming again)

Em
For the static rustling
G
Plug me in, the record spins
B
And treat me like I wasn't someone that you knew

Em
Annabelle she reads my dreams
G
Surrounding me in casualties
B
But I don't get mad cos I know its what you do

Em
Over-priced phonologies
G
Brittle man he dress like me

B
Like the pantomime crying clown
G
Cry for me whilst 
Em
Upside down
B
Salivating, bloody mouth
G
Or passionately 
Em
Bloody mouth

B
And graveyard girls swinging a bag like a pendulum
G
She creates it
Em
For her own

B
Her perfect body
G
She is perfectly
Em
Lonely


Like a pendulum

E---------------------------------------------|
B---------------------------------------------|
G---------------------------------------------|
D---------------------------------------------|
A--------------3-2-----------------3-2--------|
E--0---0-2-3-0-----3-2-0---0-2-3-0-----3-2----|  x2
Tap to rate this tab
# A B C D E F G H I J K L M N O P Q R S T U V W X Y Z