Song name
# A B C D E F G H I J K L M N O P Q R S T U V W X Y Z

The Xcerts - Just Go Home tab

----------------------------------------------------------------------------
		            Just Go Home -  The Xcerts
----------------------------------------------------------------------------
Tabbed by: MurrayAberdeen
Email: murrayyy@hotmail.co.uk

Tuning:Drop D

Intro(x2):
e|------------------------------------------------------------------|
B|------------------------------------------------------------------|
G|-14-14-14-14-14-14-14-14-14-14-14-14-14-14-14-14-11-11-11-11-7777-|
D|-11-11-11-11-11-11-11-11-11-11-11-11-11-11-11-11-9--9--9--9--5555-|
A|-12-12-12-12-12-12-12-12-12-12-12-12-12-12-12-12-9--9--9--9--5555-|
D|-0--0--0--0--0--0--0--0--0--0--0--0--0--0--0--0--9--9--9--9--5555-|

Verse 1 Pt. 1:
e|------------------------------------------------------|
B|------------------------------------------------------|
G|-7777-6666-7777-6666-11111111-7777--------------------|
D|-7777-7777-7777-7777-9-9-9-9--5555--------------------|
A|-5555-5555-5555-5555-9-9-9-9--5555--------------------|
D|---------------------9-9-9-9--5555--------------------|

(continued)
e|------------------------------------------------------|
B|------------------------------------------------------|
G|-14-14-14-14-14-14-14-14-14-14-14-14-14-14-14-14------|
D|-11-11-11-11-11-11-11-11-11-11-11-11-11-11-11-11------|
A|-12-12-12-12-12-12-12-12-12-12-12-12-12-12-12-12------|
D|-0--0--0--0--0--0--0--0--0--0--0--0--0--0--0--0-------|

Verse 1 Pt. 2:
e|------------------------------------------------------|
B|------------------------------------------------------|
G|-7777-6666-7777-6666-11111111-7777-14-14-14-14-7777---|
D|-7777-7777-7777-7777-9-9-9-9--5555-12-12-12-12-5555---|
A|-5555-5555-5555-5555-9-9-9-9--5555-12-12-12-12-5555---|
D|---------------------9-9-9-9--5555-12-12-12-12-5555---|

Chorus (and all of this will end):
e|-----------------------------------------------|
B|-----------------------------------------------|
G|-66666666-77777777-1111111111111111-99999999---|
D|-77777777-55555555-9-9-9-9-9-9-9-9--77777777---|
A|-44444444-55555555-9-9-9-9-9-9-9-9--77777777---|
D|-44444444-55555555-9-9-9-9-9-9-9-9--77777777---|

continued (everything will change)
e|---------------------------------------|
B|---------------------------------------|
G|--77777777-66666666-77777777-6666-7777-|
D|--55555555-77777777-55555555-7777-5555-|
A|--55555555-44444444-55555555-4444-5555-|
D|--55555555-44444444-55555555-4444-5555-|

Then repeat the intro and then verse 2.
it is the same apart from in part 2 you just strum each of the
first 2 chords then it is the same after that.
Then after the chorus you go onto this:

e|-----------------------------------------------|
B|-----------------------------------------------|
G|-----14-----9---7---7------14----9----7---7----|
D|-------12----7---5---5-------12---7----5---5---|
A|---12-----7----5---5---- 12-----7----5---5-----|
D|-12------7----5---5----12------7----5---5------|

continued:
e|----------------------------------|
B|----------------------------------|
G|---11---9---7---7---11---9--7-----|
D|-----9---7---5---5----9---7-0-----|
A|--9----7---5---5---9----7---0-----|
D|-9----7---5---5---9----7----0-----|

repeat the 2 bars above and then go onto this:

e|--------------------------------------------------------|
B|--------------------------------------------------------|
G|-77777777--11111111111111-77777777-11111111-16161616----|
D|--------------------------------------------------------|
A|-555555555-9-9-9-9-9-9-9--55555555-9-9-9-9--14141414----|
D|-000000000-0-0-0-0-0-0-0--00000000-0-0-0-0--0-0-0-0-----|

And then the ending:

e|---------------------------------------------------|
B|---------------------------------------------------|
G|-14-14-14-999-777-777-14-14-14-999-777-777---------|
D|-12-12-12-777-555-555-12-12-12-777-555-555---------|
A|-12-12-12-777-555-555-12-12-12-777-555-555---------|
D|-12-12-12-777-555-555-12-12-12-777-555-555---------|

Continued:
e|---------------------------------------------------|
B|---------------------------------------------------|
G|-111111-999-777-777-111111-999-7-------------------|
D|-9-9-9--777-555-555-9-9-9--777-0-------------------|
A|-9-9-9--777-555-555-9-9-9--777-0-------------------|
E|-9-9-9--777-555-555-9-9-9--777-0-------------------|

Repeat that twice and your done.

http://www.myspace.com/thexcerts
Tap to rate this tab
# A B C D E F G H I J K L M N O P Q R S T U V W X Y Z