Song name
# A B C D E F G H I J K L M N O P Q R S T U V W X Y Z

The Xx - Night Time tab

This is the "Night Time" album version. The ending from live performance is 
sometimes different from this one.

-Intro :

|---------------------------------------------------------|
|---------------------------------------------------------|
|-11--9----------------------------11---11-13-13-14-------|
|--------11-12-11----11-12-11-9-7----------------------11-|
|---------------------------------------------------------|
|---------------------------------------------------------|

-Vers 1 :
|---------------|
|---------------|
|11--9----------|
|--------11--12-|  x4
|---------------|
|---------------|

-Vers 2 :
|-----------------------------------------------------------------|
|-----------------------------------------------------------------|
|-11-14-13-9-16-14---13-14----14 13-11-14-13-9-16-14----13-14-13--|
|------------------11-------11------------------------11----------|
|-----------------------------------------------------------------|
|-----------------------------------------------------------------|

-Vers 3 :
|------------------------------------|
|------------------------------------|
|11-11-11-13-13-13-14-14-14-16-16-14-|
|------------------------------------|  x 7
|------------------------------------|
|------------------------------------|

-Vers 4 :
|------------------------------------------------------|
|------------------------------------------------------|
|11-11-11-13-13-13-14-14-14-16-16-14-11-11-11-13-13-14-|
|------------------------------------------------------|   
|------------------------------------------------------|
|------------------------------------------------------|

-Play Vers 1 x 1

-Vers 5 :
|----------------------------------|
|----------------------------------|
|-11(x9)-13(x9)-14(x9)-16-14-13-14-|
|----------------------------------|
|----------------------------------|
|----------------------------------|

-Play Vers 2 x 1 
-Play Vers 3 x 7
-Play Vers 4 x 1
-Play Vers 1 x 1
-Play Vers 5 x 1

- Ending (similar to vers 2 except last few notes)
|--------------------------------------------------------------------------|
|--------------------------------------------------------------------------|
|11-14-13-9-16-14---13-14----14 13-11-14-13-9-16-14----13-14-14-13-11-10-11|
|-----------------11-------11------------------------11--------------------|
|--------------------------------------------------------------------------|
|--------------------------------------------------------------------------|
Tap to rate this tab
# A B C D E F G H I J K L M N O P Q R S T U V W X Y Z