Song name
# A B C D E F G H I J K L M N O P Q R S T U V W X Y Z

The Xx - Intro tab

-------------------------------------------------------------------------------
                                 Intro - The xx
-------------------------------------------------------------------------------

Intro Riff:

e|----------------------------------------------------------------------------|
b|----------------------------------------------------------------------------|
g|----------------------------------------------------------------------------|
d|-7-7--7--7-7--7--7-7--7--7-7--7--10-10--10--10-10--10--10-10--10--10-10--10-|
a|----------------------------------------------------------------------------|
e|----------------------------------------------------------------------------|

e|----------------------------------------------------------------------------|
b|----------------------------------------------------------------------------|
g|-7-7--7--7-7--7--7-7--7--7-7--7--9-9--9--9-9--9--7-7--7---------------------|
d|---------------------------------------------------------10-10--10----------|
a|----------------------------------------------------------------------------|
e|----------------------------------------------------------------------------|


 x2

Alternative Riff:

e|----------------------------------------------------------------------------|
b|----------------------------------------------------------------------------|
g|-------------7-7---------------------7-7------------------------------------|
d|-7-7--10-10------10-10---7-7--10-10-------10-10-----------------------------|
a|----------------------------------------------------------------------------|
e|----------------------------------------------------------------------------|

e|----------------------------------------------------------------------------|
b|----------------------------------------------------------------------------|
g|-------------9-9---------7-7-----------9-9----------------------------------|
d|-7-7--10-10------10-10--------10-10-------10-10-----------------------------|
a|----------------------------------------------------------------------------|
e|----------------------------------------------------------------------------|

 x2


Repeat Intro riff:


e|----------------------------------------------------------------------------|
b|----------------------------------------------------------------------------|
g|----------------------------------------------------------------------------|
d|-7-7--7--7-7--7--7-7--7--7-7--7--10-10--10--10-10--10--10-10--10--10-10--10-|
a|----------------------------------------------------------------------------|
e|----------------------------------------------------------------------------|

e|----------------------------------------------------------------------------|
b|----------------------------------------------------------------------------|
g|-7-7--7--7-7--7--7-7--7--7-7--7--9-9--9--9-9--9--7-7--7---------------------|
d|---------------------------------------------------------10-10--10----------|
a|----------------------------------------------------------------------------|
e|----------------------------------------------------------------------------|


Repeat Alternative riff:

e|----------------------------------------------------------------------------|
b|----------------------------------------------------------------------------|
g|-------------7-7---------------------7-7------------------------------------|
d|-7-7--10-10------10-10---7-7--10-10-------10-10-----------------------------|
a|----------------------------------------------------------------------------|
e|----------------------------------------------------------------------------|

e|----------------------------------------------------------------------------|
b|----------------------------------------------------------------------------|
g|-------------9-9---------7-7-----------9-9----------------------------------|
d|-7-7--10-10------10-10--------10-10-------10-10-----------------------------|
a|----------------------------------------------------------------------------|
e|----------------------------------------------------------------------------|

 x2

Ends with: 

e|----------------------------------------------------------------------------|
b|----------------------------------------------------------------------------|
g|--------9---7-----------------------------9----7----------------------------|
d|-7---------------10---------------7------------------10---------------------|
a|----------------------------------------------------------------------------|
e|----------------------------------------------------------------------------|

Tap to rate this tab
 
# A B C D E F G H I J K L M N O P Q R S T U V W X Y Z