Song name
# A B C D E F G H I J K L M N O P Q R S T U V W X Y Z

The Xx - Night Time tab

Fantastic song by a fantastic band, this should be all correct
During most of the song the Second Guitar harmonizes 
underneath the 1st one, and can be hard to hear

Intro
e|------------------------------------------------------------|
B|------------------------------------------------------------|
G|11~--9~-----------------------------11~---11/13~---13/14~---|
D|---------11/12~---11/12\11-9-7~-----------------------------|
A|------------------------------------------------------------|
E|------------------------------------------------------------|

Verse 1
Guitar 1
e|------------------------|
B|------------------------|
G|11~---9~----------------|
D|-----------11~----12~---|
A|------------------------|
E|------------------------|

Guitar 2
e|--------------------|
B|--------------------|
G|--------------------|
D|9~---7~-------------|
A|----------9~---9~---|
E|--------------------|

Break
Guitar 1
e|------------------------------------------------|
B|----------------/12-12--------------------------|
G|11~-/14-13-------------14-----/13-14----/14-13~-|
D|-----------14~------------11~--------11~--------|
A|------------------------------------------------|
E|------------------------------------------------|

e|----------------------------------------|
B|---------------/12-12-------------------|
G|11~-/14-13------------14-----13-14-13~~-|
D|-----------14~-----------11~------------|
A|----------------------------------------|
E|----------------------------------------|

Guitar 2
e|--------------------------------|
B|--------------------------------|
G|--------------------------------|
D|9~---7~------------9~---7~------|
A|----------9~---9~-----------9~~-|
E|--------------------------------|

Verse 2

Guitar 1
e|-----|
B|-----|
G|11~~-|
D|-----|
A|-----|
E|-----|x5

After those 5 notes, wait until Guitar 2 plays riff once more then
join back in with this

e|---------------------------------------------|
B|---------------------------------------------|
G|11-11-11-11/13-13-13-13/14-14-14-14/16-14-13-|
D|---------------------------------------------|
A|---------------------------------------------|
E|---------------------------------------------|

e|-----------------------------|
B|-----------------------------|
G|11-11-11-11/13-13-13-13/14~~-|
D|-----------------------------|
A|-----------------------------|
E|-----------------------------|

Guitar 2
e|------------------------------|
B|7-7-7-9-9-9-10-10-10-12-12-10-|
G|------------------------------|
D|------------------------------|
A|------------------------------|
E|------------------------------|x7

e|-----------------|
B|7-7-7-9-9-9-10~~-|
G|-----------------|
D|-----------------|
A|-----------------|
E|-----------------|

Chorus

Guitar 1 - the 14 x9 is not a mistake, that is the right number of notes :)
e|----------------------------------------------------------------|
B|----------------------------------------------------------------|
G|11~---9~------------------11(x8)-/13(x8)-/14(x9)-16-16-16-14-13-|
D|-----------11~---11/12~-----------------------------------------|
A|----------------------------------------------------------------|
E|----------------------------------------------------------------|

Guitar 2
e|----------------------------------------|
B|----------------------------------------|
G|----------------------------------------|
D|9~---7~-------------9~---7~-------------|
A|----------9~---9~-------------9~---9~---|
E|----------------------------------------|

Verse 3

Guitar 1 - Sit out for whole verse but come in last 2 times through with this

e|---------------------------------------------|
B|---------------------------------------------|
G|11-11-11-11/13-13-13-13/14-14-14-14/16-14-13-|
D|---------------------------------------------|
A|---------------------------------------------|
E|---------------------------------------------|

e|-----------------------------|
B|-----------------------------|
G|11-11-11-11/13-13-13-13/14~~-|
D|-----------------------------|
A|-----------------------------|
E|-----------------------------|

Guitar 2
e|------------------------------|
B|7-7-7-9-9-9-10-10-10-12-12-10-|
G|------------------------------|
D|------------------------------|
A|------------------------------|
E|------------------------------|x4 Palm Muted x3 Un Muted

e|-----------------|
B|7-7-7-9-9-9-10~~-|
G|-----------------|
D|-----------------|
A|-----------------|
E|-----------------|Last Time

Chorus

Break

End Part

Guitar 1 only
e|-----------------|
B|-----------------|
G|14-13-11-10-11~~-|
D|-----------------|
A|-----------------|
E|-----------------|

Cheers, please rate well because this is accurate :)
Tap to rate this tab
# A B C D E F G H I J K L M N O P Q R S T U V W X Y Z