Song name
# A B C D E F G H I J K L M N O P Q R S T U V W X Y Z

The Xx - Islands tab

-------------------------------------------------------------------------------
			     ISLANDS - The XX
-------------------------------------------------------------------------------
Tabbed by: emery01
Email: michaelemery@iinet.net.au


Not so much the intro as just kind of the first verse. The ground work for
someone to figure the rest out, or maybe I'll do it. I'm not sure. May also be missing 
it's a work in progress anyway.

Uhh, enjoy.


Tuning: Standard

Verse type bit:

e|---------------------------------------------------------------------------|
B|---------------------------------------------------------------------------|
G|---------------------------------------------------------------------------|
D|-------13------11------9-----9-----6-------4----9--------------------------|
A|-11-11----11/9----7--7---7-7---4-4---4-4\2---7-7--7------------------------|
E|---------------------------------------------------------------------------|

e|---------------------------------------------------------------------------|
B|---------------------------------------------------------------------------|
G|---------------------------------------------------------------------------|
D|------13-------16------11-----9-----6-----4-----9--------------------------|
A|-11-11----11/14-----9-9----9/7---4-4---4/2---7-7---7-----------------------|
E|---------------------------------------------------------------------------|


Feel free to add and adapt.
Tap to rate this tab
# A B C D E F G H I J K L M N O P Q R S T U V W X Y Z