Song name
# A B C D E F G H I J K L M N O P Q R S T U V W X Y Z

The Xx - Crystalised tab

This is my first ever tab i worked this song out and was particularly pleased with 
seeing as the other tabs haven't quite got it yet. It's Romy's part only though by the way.

/- Slide up
\- Slide down

INTRO
  1st guitar (Romy Madley Croft)
e:-----------------------------------------------------------------------|
B:-----------------------------------------------------------------------|
G:--------------------11--11-11----9-------------------------------------|
D:---9---9----12-12-------------12--12--9----9---12-12------------12--9--|
A:-------------------------------------------------------10----10--------|
E:-----------------------------------------------------------------------|

e:--------------------------------------------------------------|
B:--------------------------------------------------------------|
G:--------------------11--11-11----9----------------------------|
D:---9---9----12-12-------------12--12--9----9---12--12---------|
A:-------------------------------------------------------10-----|
E:--------------------------------------------------------------|

e:-------------------------------------------------------------------------|
B:-------------------------------------------------------------------------|
G:-------------------------------------------------------------------------|
D:-9999/12-12-12-11--11-11-11-11-12-11-12-9999/14-14-14-11--11-11-12-11-12-|
A:-------------------------------------------------------------------------|
E:-------------------------------------------------------------------------|

e:---------------------------------------------------------|
B:---------------------------------------------------------|
G:---------------------------------------------------------|
D:-9999/12-12-12-11--11-11-11-11-12-11-12-9999/14-14-14\11-|
A:---------------------------------------------------------|
E:---------------------------------------------------------|

CHORUS:
e:----------|
B:----------|
G:----------|
D:----12-9--|   x5
A:--11------|
E:----------|

e:-------------------------------------------|
B:-------------------------------------------|
G:-------------------------------------------|
D:----12-12-12-12-12\11-11-11-11----11-11-11-|
A:-11----------------------------------------|
E:-------------------------------------------|

e:-------------------------------------------|
B:-------------------------------------------|
G:-------------------------------------------|
D:----12-12-12-12-12\11----------------------|
A:-------------------------------------------|
E:-------------------------------------------|

Verse after Chorus
e:-------------------------------------------------------------------------|
B:-------------------------------------------------------------------------|
G:-------------------------------------------------------------------------|
D:-9999/12-12-12-11--11-11-11-11-11-11-11-9999/14-14-14-11--11-11-12-11-12-|
A:-------------------------------------------------------------------------|
E:-------------------------------------------------------------------------|

e:--------------------------------------------------------------------|
B:--------------------------------------------------------------------|
G:--------------------------------------------------------------------|
D:-9999/12-12-12-11--11-11-11-11-12-11-12-9999/14-14-14\11-11-11-11-11|
A:--------------------------------------------------------------------|
E:--------------------------------------------------------------------|

e:-------------------------------------------------------------------------|
B:-------------------------------------------------------------------------|
G:-------------------------------------------------------------------------|
D:-9999/12-12-12-11--11-11-11-11-12-11-12-9999/14-14-14-11--11-11-12-11-12-|
A:-------------------------------------------------------------------------|
E:-------------------------------------------------------------------------|

e:---------------------------------------------------------|
B:---------------------------------------------------------|
G:---------------------------------------------------------|
D:-9999/12-12-12-11--11-11-11-11-12-11-12-9999/14-14-14\11-|
A:---------------------------------------------------------|
E:---------------------------------------------------------|


Then Romy just kinda plays around with the chorus bit a little

e:----------|
B:----------|
G:----------|
D:----12-9--|   x5
A:--11------|
E:----------|

e:-------------------------------------------|
B:-------------------------------------------|
G:-------------------------------------------|
D:----12-12-12-12-12\11-11-11-11----11-11-11-|
A:-11----------------------------------------|
E:-------------------------------------------|

e:-------------------------------------------|
B:-------------------------------------------|
G:-------------------------------------------|
D:----12-12-12-12-12\11------11-11-11-11-----|
A:-------------------------------------------|
E:-------------------------------------------|
Tap to rate this tab
 
# A B C D E F G H I J K L M N O P Q R S T U V W X Y Z