Song name
# A B C D E F G H I J K L M N O P Q R S T U V W X Y Z

The Xx - Basic Space Live tab

Alternative "Basic Space" version with different ending and played live (maybe from november 2009)

-Intro :
|-----------------|
|-----------------|
|-15(x16)-14(x16)-|  x 2
|-----------------|
|-----------------|
|-----------------|

-Verse 1 : 
|--------------------------------------------------------------------------|
|------15------15---------------------------------15-----15----------------|
|15(x9)--15-15----15-15-14(x9)-12-12-14-14-15(x9)---15-15---15-15-14(x9)-12|
|--------------------------------------------------------------------------|
|--------------------------------------------------------------------------|
|--------------------------------------------------------------------------|

-Verse 2 :
|--------------------------------------------------------------------------|
|-------15-15-15-15---------------------------15-15-15-16-16-15-15---------|
|15(x10)-----------14(x10)-12-12-14-14-15(x10)----------------------14(x9)-|
|--------------------------------------------------------------------------|
|--------------------------------------------------------------------------|
|--------------------------------------------------------------------------|

-Verse 3 :
|------------|
|----15------|
|-15---14-12-|
|------------|  x 2
|------------|
|------------|

-Verse 4 :
|--------------------|
|----15--------------|
|-15---14-12---12-14-|
|--------------------| 
|--------------------|
|--------------------|

-Verse 5 :
|--------------------|
|----15--------16-15-|
|-15---14-12---------|
|--------------------|  x 2
|--------------------|

-	Verse 4 x 1
-	Verse 3 x 2 play faster
-	Verse 5 x 1 play faster
-	Verse 3 x 2 play faster
-	Verse 5 x 1 play faster

Ending with effects (Holy Grail Plus Electro Harmonix- controlled by Jamie) on last notes:

|--------------------| 
|--------------------|
|-14-12-15 slide 12--| 
|--------------------|   
|--------------------|
|--------------------|
Tap to rate this tab
# A B C D E F G H I J K L M N O P Q R S T U V W X Y Z