Song name
# A B C D E F G H I J K L M N O P Q R S T U V W X Y Z

The Xx - Intro tab

                                 Intro  

this is a correction
/=slide 
^=bend
Intro :

e|----------------------------------------------------------------------------|
b|----------------------------------------------------------------------------|
g|----------------------------------------------------------------------------|
d|-7-7--7--7-7--7--7-7--7--7-7--7--10-10--10--10-10--10--10-10--10--10-10--10-|
a|----------------------------------------------------------------------------|
e|----------------------------------------------------------------------------|

e|----------------------------------------------------------------------------|
b|----------------------------------------------------------------------------|
g|-7-7--7--7-7--7--7-7--7--7-7--7--9-9--9--9-9--9--7-7--7---------------------|
d|---------------------------------------------------------10-10--10-----5----|
a|----------------------------------------------------------------------------|
e|----------------------------------------------------------------------------|


 x2
 Riff:

e|----------------------------------------------------------------------------|
b|----------------------------------------------------------------------------|
g|-------------7-7----------------------7-7-----------------------------------|
d|5/7-7----10-10------10-10--7/10-----10-------10-10--------------------------|
a|----------------------------------------------------------------------------|
e|----------------------------------------------------------------------------|

e|----------------------------------------------------------------------------|
b|----------------------------------------------------------------------------|
g|-------------9-9---------7-7-----------9-9----------------------------------|
d|-7--7--10-10------10-10--------10-10-------10-10----------------------------|
a|----------------------------------------------------------------------------|
e|----------------------------------------------------------------------------|

 x2


Repeat Intro riff:


e|----------------------------------------------------------------------------|
b|----------------------------------------------------------------------------|
g|----------------------------------------------------------------------------|
d|-7-7--7--7-7--7--7-7--7--7-7--7--10-10--10--10-10--10--10-10--10--10-10--10-|
a|----------------------------------------------------------------------------|
e|----------------------------------------------------------------------------|

e|----------------------------------------------------------------------------|
b|----------------------------------------------------------------------------|
g|-7-7--7--7-7--7--7-7--7--7-7--7--9-9--9--9-9--9--7-7--7---------------------|
d|---------------------------------------------------------10-10--10-----5----|
a|----------------------------------------------------------------------------|
e|----------------------------------------------------------------------------|


Repeat  riff:


e|----------------------------------------------------------------------------|
b|----------------------------------------------------------------------------|
g|-------------7-7----------------------7-7-----------------------------------|
d|5/7-7----10-10------10-10--7/10-----10-------10-10--------------------------|
a|----------------------------------------------------------------------------|
e|----------------------------------------------------------------------------|

e|----------------------------------------------------------------------------|
b|----------------------------------------------------------------------------|
g|-------------9-9---------7-7-----------9-9----------------------------------|
d|-7--7--10-10------10-10--------10-10-------10-10----------------------------|
a|----------------------------------------------------------------------------|
e|----------------------------------------------------------------------------|

 x2

Ends with: 

e|----------------------------------------------------------------------------|
b|----------------------------------------------------------------------------|
g|--------7--9------------------------------9----7/9--------------------------|
d|-5/7--7/10------------10^--------------7/10------------------10^------------|
a|----------------------------------------------------------------------------|
e|----------------------------------------------------------------------------|



Tap to rate this tab
# A B C D E F G H I J K L M N O P Q R S T U V W X Y Z