Song name
# A B C D E F G H I J K L M N O P Q R S T U V W X Y Z

The Xx - Crystalised tab

The XX - Crystalised

This is pretty close and suitable for one guitar or acoustic.

Normal Tuning

Intro - 1st guitar
e:------------------------------------------------------------------|
B:-----7765--------5------------------------------------------------|
G:--4------6-6-6-7---74-4---6s777---776----------------------------| x2
D:---------------------------------7--------------------------------|
A:------------------------------------------------------------------|
E:------------------------------------------------------------------|

1st guitar

e:------------------------------------------------------------------|
B:------------------------------------------------------------------|
G:--44447776666676744449999/6666676744447776666676744449999/6-------| x2
D:------------------------------------------------------------------|
A:------------------------------------------------------------------|
E:------------------------------------------------------------------|

Guitar 2: this is throughout the whole song
e|---------------------------------------------|
b|---------------------------------------------|
g|---------------------------------------------|
d|-14---9---7-------14---9---11---12-----------|
a|-14---9---7-------14---9---11---12-----------|
e|-12---7---5-------12---7---9----10-----------|

(Bass during vocals)

You've applied the pressure to help me crystalize.
And you've got the faith that I could bring paradise.
I'll forgive and forget before I'm paralyzed.
Do I have to keep up the pace to keep you satisfied? High.

Things have gotten closer to the sun, and I've done things in small doses.
So don't think that I'm pushing you away when you're the one that I've kept closest.

High. x4

1st guitar
e:------------------------------------------------------------------|
B:------------------------------------------------------------------|
G:------------------------------------------------------------------|
D:---9-12-9-9-12-9-9-12-9-9-12-9-9-9-9-12-12-12-12-12-11-11-11-11---|
A:------------------------------------------------------------------|
E:------------------------------------------------------------------|

e:------------------------------------------------------------------|
B:------------------------------------------------------------------|
G:-44447776666666644449999/6666676744447776666676744449999/66666767-|
D:------------------------------------------------------------------|
A:------------------------------------------------------------------|
E:------------------------------------------------------------------|

You don't need to move slow taking steps in my directions,
The sound resounds, echos, does it lessen your affection? No.
You say I'm foolish for pushing this aside,
Burn down our home if I could be so bold.

Glaciers have melted to the sea, I wish the tide would take me over.
I've been down on my knees, and you just keep on getting closer.  

High. x4

1st guitar
e:------------------------------------------------------------------|
B:------------------------------------------------------------------|
G:------------------------------------------------------------------|
D:---9-12-9-9-12-9-9-12-9-9-12-9-9-9-9-12-12-12-12-12-11-11-11-11---|
A:------------------------------------------------------------------|
E:------------------------------------------------------------------|

e:------------------------------------------------------------------|
B:------------------------------------------------------------------|
G:-44447776666666644449999/6666676744447776666676744449999/66666767-|
D:------------------------------------------------------------------|
A:------------------------------------------------------------------|
E:------------------------------------------------------------------|

(Nothing)
(Male Vocals)
Things have gotten closer to the sun, and I've done things in small doses
(Female Vocal Overlay) 
Glaciers have melted to the sea, I wish the tide would take me over.
(Male Vocals)
So don't think that I'm pushing you away, when you're the one that I've kept closest)
(Female Vocal Overlay)
I've been down on my knees, and you just keep on getting closer.

Go slow. x5

Guitar 2 - Fadeout
e|---------------------------------------------|
b|---------------------------------------------|
g|---------------------------------------------|
d|-14---9---7----------------------------------|
a|-14---9---7----------------------------------|
e|-12---7---5----------------------------------|
Tap to rate this tab
 
# A B C D E F G H I J K L M N O P Q R S T U V W X Y Z