Song name
# A B C D E F G H I J K L M N O P Q R S T U V W X Y Z

The Xx - Crystalised tab

    Hey guys, amazing song by a great new band here. I can't promise it's 100& accurate,
it sounds pretty good to me. All of the other tabs I looked at didn't seem quite right,
I decided to tab it myself. I only tabbed the lead guitar because frankly that's the fun 
to play aha. The few chords played by the other guitarist should be easy enough to
out anyways.  Enjoy!
                                             ~Ter

                 INTRO
|---------------------------------------------------------|
|---------------------------------------------------------|
|---------11-11-10-9-6--6--6-7-9-7--------7-7-7--------7--|
|-----9-----------------------------------------5----5---9|
|-----------------------------------7---7-----------------|
|---------------------------------------------------------|

|---------------------------------------------------------|
|---------------------------------------------------------|
|---------11-11-10-9-6--6--6-7-9-7--------7-7-7-----------|
|-----9-----------------------------------------5---------|
|-----------------------------------7---7-----------------|
|---------------------------------------------------------|


                 VERSE
|-------------------------------------------------|
|-------------------------------------------------|
|-------------------------------------------------|
|--9-9-9-9-9/12-12-12-11-11-11-11-11-11-12-11-12--|
|-------------------------------------------------|
|-------------------------------------------------|

|-------------------------------------------------|
|-------------------------------------------------|
|-------------------------------------------------|
|--9-9-9-9-9/14-14-14-11-11-11-11-11-11-12-11-12--|
|-------------------------------------------------|
|-------------------------------------------------|

                 CHORUS
|----------------------------------------------------------------------------|
|----------------------------------------------------------------------------|
|----------------------------------------------------------------------------|
|--9-12-9-9-12-9-9-12-9-9-12-9-9-12-9-9--12--12--12--12-11--11--11--11-11-11-|
|----------------------------------------------------------------------------|
|----------------------------------------------------------------------------|

|---------------------------------------------------------------------------|
|---------------------------------------------------------------------------|
|---------------------------------------------------------------------------|
|--9-12-9-9-12-9-9-12-9-9-12-9-9-12-9-9--12--12--12--12-11------------------|
|---------------------------------------------------------------------------|
|---------------------------------------------------------------------------|


That's about it. If you find any corrections or have any questions, email me at 
gnarlalicous@aol.com
Tap to rate this tab
 
# A B C D E F G H I J K L M N O P Q R S T U V W X Y Z