The Xx - Crystalised tab

This is an edited version of:
http://www.ultimate-guitar.com/tabs/t/the_xx/crystalised_tab.htm

-Made this a solo tab by removing the second guitars parts
-Added lyrics
-Changed the intro and the ending around because it sounded closer to the song to me, 
but it's up to you what you think sounds best.

So pretty much all credits to the creator of the original tab, and to me for the slight changes

Note that each line of lyrics is only one half of the verse.


INTRO
e:------------------------------------------------------------------|
B:--0-777-5-2-2-2-3-5-3--------------00-777-5-2-2-2-3-5-3-----------|
G:----------------------0-000-3---33----------------------0-000-3---|
D:------------------------------------------------------------------|
A:------------------------------------------------------------------|
E:------------------------------------------------------------------|
    1-:-2-:-3-:-4-:-5-:-6-:-7-:-8-:-1-:-2-:-3-:-4-:-5-:-6-:-7-:-8-:-|

e:------------------------------------------------------------------|
B:--44447776666676744449999/6666676744447776666676744449999/6-------|
G:------------------------------------------------------------------|
D:------------------------------------------------------------------|
A:------------------------------------------------------------------|
E:------------------------------------------------------------------|
INTRO ENDS


    You've applied the pressure, to have me crystalised...
e:------------------------------------------------------------------|
B:------------------------------------------------------------------|
G:------------------------------------------------------------------|
D:------------------------------------------------------------------|
A:-------------------2-2-2-0-0-0---------------------2-2-2/4-4-45-5-|
E:--0000000-000000------------------0000000-0000000-----------------|
    1-:-2-:-3-:-4-:-5-:-6-:-7-:-8-:-1-:-2-:-3-:-4-:-5-:-6-:-7-:-8-:-|

    I'll forgive and forget, before I'm paralysed...
e:------------------------------------------------------------------|
B:------------------------------------------------------------------|
G:------------------------------------------------------------------|
D:------------------------------------------------------------------|
A:-------------------2-2-2-0-0-0---------------------2-2-2/4-4-45-5-|
E:--00000000-0-00000----------------00000000-0-00000----------------|
    1-:-2-:-3-:-4-:-5-:-6-:-7-:-8-:-1-:-2-:-3-:-4-:-5-:-6-:-7-:-8-:-|

    Things have gotten closer to the sun, and I've done things in small doses...
e:------------------------------------------------------------------|
B:------------------------------------------------------------------|
G:------------------------------------------------------------------|
D:------------------------------------------------------------------|
A:-------------------2-2-2-0-0-0-000-----------------2-2-2/4-4-45-5-|
E:--00000000000000------------------0000000000000000----------------|


    Hi-e-i-e-i...
e:------------------------------------------------------------------|
B:---30-30-30-30-30-3-3-3332-2-2-222-30-30-30-30-30--3-3-333/2------|
G:--1--1--1--1--1--1----------------1--1--1--1--1--1----------------|
D:------------------------------------------------------------------|
A:------------------------------------------------------------------|
E:------------------------------------------------------------------|
    1-:-2-:-3-:-4-:-5-:-6-:-7-:-8-:-1-:-2-:-3-:-4-:-5-:-6-:-7-:-8-:-|


    You don't move slow, taking steps in my direction...
e:------------------------------------------------------------------|
B:------------------------------------------------------------------|
G:--44447776666666644449999/6666676744447776666676744449999/66666767|
D:------------------------------------------------------------------|
A:------------------------------------------------------------------|
E:------------------------------------------------------------------|

    You say I'm foolish, for pushing this aside...
e:------------------------------------------------------------------|
B:------------------------------------------------------------------|
G:--44447776666676744449999/6666676744447776666676744449999/6-------|
D:------------------------------------------------------------------|
A:------------------------------------------------------------------|
E:------------------------------------------------------------------|
    1-:-2-:-3-:-4-:-5-:-6-:-7-:-8-:-1-:-2-:-3-:-4-:-5-:-6-:-7-:-8-:-|

    Glaciers melt into the sea, i wish the tide would take me over...
e:------------------------------------------------------------------|
B:---30-30-30-30-30-3-3-3332-2-2-222-30-30-30-30-30--3-3-333/2--222-|
G:--1--1--1--1--1--1----------------1--1--1--1--1--1----------------|
D:------------------------------------------------------------------|
A:------------------------------------------------------------------|
E:------------------------------------------------------------------|


    Hi-e-i-e-i...
e:------------------------------------------------------------------|
B:---30-30-30-30-30-3-3-3332-2-2-222-30-30-30-30-30--3-3-333/2--222-|
G:--1--1--1--1--1--1----------------1--1--1--1--1--1----------------|
D:------------------------------------------------------------------|
A:------------------------------------------------------------------|
E:------------------------------------------------------------------|
    1-:-2-:-3-:-4-:-5-:-6-:-7-:-8-:-1-:-2-:-3-:-4-:-5-:-6-:-7-:-8-:-|


Glaciers melted to the sea (Things have gotten closer to the sun)
I wish the tide would take me over (And I've done things in small doses)
I've been down onto my knees (So don't think that I'm pushing you away)
And you just keep on getting closer (When you're the one that I've kept closest)


    Go-oo-oh slow...
e:-------------------------------------------------------------------|
B:-------------------------------------------------------------------|
G:-------------------------------------------------------------------|
D:--2222222222222222----------------2222222222222222-----------------|
A:-------------------2-2-2-0-0-0---------------------2---2/0----2//0-|
E:-------------------------------------------------------------------|
    1-:-2-:-3-:-4-:-5-:-6-:-7-:-8-:-1-:-2-:-3-:-4-:-5-:-6-:-7-:-8-:--|
Tap to rate this tab
 
# A B C D E F G H I J K L M N O P Q R S T U V W X Y Z