Song name
# A B C D E F G H I J K L M N O P Q R S T U V W X Y Z

The Xx - Crystalised tab

-------------------------------------------------------------------------------
			     Crystalised - The xx
-------------------------------------------------------------------------------


Tuning: EADGBe

Intro Pt. I (0:03-0:118)
e|---------------------------------------------------------------------------|
B|---------------------------------------------------------------------------|
G|-----11-11-10-9---------------9--------------------------------------------|
D|--9--------------11-11-11--12--12-9---9-9-12-12-12----------12-9-----------|
A|---------------------------------------------------10----10----------------|
E|---------------------------------------------------------------------------|

e|---------------------------------------------------------------------------|
B|---------------------------------------------------------------------------|
G|-----11-11-10-9---------------9--------------------------------------------|
D|--9--------------11-11-11--12--12-9---9-9-12-12-12-------------------------|
A|---------------------------------------------------10----------------------|
E|---------------------------------------------------------------------------|

Intro Pt. II (0:20-0:34)
e|---------------------------------------------------------------------------|
B|---------------------------------------------------------------------------|
G|---------------------------------------------------------------------------|
D|-9-9-9-9/12-12-12/11-11-11-11--11-12-11-12/9-9-9/14-14-14/11-11-11-12-11-12|
A|---------------------------------------------------------------------------|
E|---------------------------------------------------------------------------|

e|---------------------------------------------------------------------------|
B|---------------------------------------------------------------------------|
G|---------------------------------------------------------------------------|
D|-9-9-9-9/12-12-12/11-11-11-11--11-12-11-12/9-9-9/14-14-14/11---------------|
A|---------------------------------------------------------------------------|
E|---------------------------------------------------------------------------|

Verse [Bass only, tabbed for guitar. Play with octave pedal.]  (0:34-1:121)
e|---------------------------------------------------------------------------|
B|---------------------------------------------------------------------------|
G|---------------------------------------------------------------------------|
D|---------------------------------------------------------------------------|
A|-777777-7777777--------------------777777-7777777--------------------------|
E|-----------------7-7-7-5-5-5-5555--------------------7-7-7-9-9-9-9999------|

e|---------------------------------------------------------------------------|
B|---------------------------------------------------------------------------|
G|---------------------------------------------------------------------------|
D|---------------------------------------------------------------------------|
A|-777777-7777777--------------------777777-7777777--------------------------|
E|-----------------7-7-7-5-5-5-5555--------------------7-7-7-9-9-9-9999------|

e|---------------------------------------------------------------------------|
B|---------------------------------------------------------------------------|
G|---------------------------------------------------------------------------|
D|------------------9-9-9-7-7-7-7777-------------------9-9-9-11-11-11-111111-|
A|-7777777777777777--------------------7777777777777777----------------------|
E|---------------------------------------------------------------------------|


Chorus (1:22-1:36)
e|---------------------------------------------------------------------------|
B|---------------------------------------------------------------------------|
G|---------------------------------------------------------------------------|
D|-----12-9----12-9-----12-9----12-9-----12-9-----12-12-12-12-12-11-11-11----|
A|--11------11-------11------11-------11------11-----------------------------|
E|---------------------------------------------------------------------------|

e|---------------------------------------------------------------------------|
B|---------------------------------------------------------------------------|
G|---------------------------------------------------------------------------|
D|-----12-9----12-9-----12-9----12-9-----12-9-----12-12-12-12-12-11-11-11----|
A|--11------11-------11------11-------11------11-----------------------------|
E|---------------------------------------------------------------------------|

1:37-2:08)
e|---------------------------------------------------------------------------|
B|---------------------------------------------------------------------------|
G|---------------------------------------------------------------------------|
D|-9-9-9-9/12-12-12/11-11-11-11--11-12-11-12/9-9-9/14-14-14/11-11-11-12-11-12|
A|---------------------------------------------------------------------------|
E|---------------------------------------------------------------------------|

e|---------------------------------------------------------------------------|
B|---------------------------------------------------------------------------|
G|---------------------------------------------------------------------------|
D|-9-9-9-9/12-12-12/11-11-11-11--11-12-11-12/9-9-9/14-14-14/11---------------|
A|---------------------------------------------------------------------------|
E|---------------------------------------------------------------------------|

e|---------------------------------------------------------------------------|
B|---------------------------------------------------------------------------|
G|---------------------------------------------------------------------------|
D|-9-9-9-9/12-12-12/11-11-11-11--11-12-11-12/9-9-9/14-14-14/11-11-11-12-11-12|
A|---------------------------------------------------------------------------|
E|---------------------------------------------------------------------------|

e|---------------------------------------------------------------------------|
B|---------------------------------------------------------------------------|
G|---------------------------------------------------------------------------|
D|-9-9-9-9/12-12-12/11-11-11-11--11-12-11-12/9-9-9/14-14-14/11---------------|
A|---------------------------------------------------------------------------|
E|---------------------------------------------------------------------------|

2:09-2:40
e|---------------------------------------------------------------------------|
B|---------------------------------------------------------------------------|
G|---------------------------------------------------------------------------|
D|-----12-9----12-9-----12-9----12-9-----12-9-----12-12-12-12-12-11-11-11----|
A|--11------11-------11------11-------11------11-----------------------------|
E|---------------------------------------------------------------------------|

e|---------------------------------------------------------------------------|
B|---------------------------------------------------------------------------|
G|---------------------------------------------------------------------------|
D|-----12-9----12-9-----12-9----12-9-----12-9-----12-12-12-12-12-11-11-11----|
A|--11------11-------11------11-------11------11-----------------------------|
E|---------------------------------------------------------------------------|

e|---------------------------------------------------------------------------|
B|---------------------------------------------------------------------------|
G|---------------------------------------------------------------------------|
D|-----12-9----12-9-----12-9----12-9-----12-9-----12-12-12-12-12-11-11-11----|
A|--11------11-------11------11-------11------11-----------------------------|
E|---------------------------------------------------------------------------|

e|---------------------------------------------------------------------------|
B|---------------------------------------------------------------------------|
G|---------------------------------------------------------------------------|
D|-----12-9----12-9-----12-9----12-9-----12-9-----12-12-12-12-12-11-11-11----|
A|--11------11-------11------11-------11------11-----------------------------|
E|---------------------------------------------------------------------------|

Silence (2:41-2:55)

Ending (2:56-3:22)
e|---------------------------------------------------------------------------|
B|---------------------------------------------------------------------------|
G|---------------------------------------------------------------------------|
D|---9-9-9-9-9-9-9-9-9-9-9-9-9-9-9-9--9--9--9--7--7--7--7--------------------|
A|------------------------------------7--7--7--5--5--5--5--------------------|
E|------------------------------------7--7--7--5--5--5--5--------------------|

e|---------------------------------------------------------------------------|
B|---------------------------------------------------------------------------|
G|---------------------------------------------------------------------------|
D|---9-9-9-9-9-9-9-9-9-9-9-9-9-9-9-9--9--9/7--7------------------------------|
A|------------------------------------7--7/5--5------------------------------|
E|------------------------------------7--7/5--5------------------------------|

|KEY**********************************
| /   slide up
**************************************
Tap to rate this tab
 
# A B C D E F G H I J K L M N O P Q R S T U V W X Y Z