Song name
# A B C D E F G H I J K L M N O P Q R S T U V W X Y Z

The Xx - Infinity tab

The tabs that are on here aren't 100% correct (these probably are not as well), so I 
reckoned I'd give it a try and improve mareknowi's version. Please rate and comment :)

Verse 1:
    Bm      A       E       E
e:--2-------0-------0-------0------| (x2)
B:--3-------2-------0-------0------|
G:--4-------2-------1-------1------|
D:--4-------2-------2-------2------|
A:--2-------0-------2-------2------|
E:------------------0-------0------|

Chorus:
That's not quite the correct strumming pattern, but I'm sure you'll figure it out!
e:-------------------------------------------------| (x3)
B:-------------------------------------------------|
G:--4-4---4---------2-2---2---------1-1---1--------|
D:--4-4---4--(x2)---2-2---2--(x2)---2-2---2--(x4)--|
A:-------------------------------------------------|
E:-------------------------------------------------|

Solo:
e:-----------------------------------------------------|
B:-----------------------------------------------------|
G:---------------------------11-9----------------------|
D:--9-9---11---12/16--9----9------12--12-12-12/14--9---|
A:-----------------------------------------------------|
E:-----------------------------------------------------|

e:------------------------------------------------------------------|
B:------------------------------------------------------------------|
G:------------------------------------------------------------------|
D:--12-12-12-12-12\11--11/12-11--11/12-11--11/12--11--11/16--9------|
A:------------------------------------------------------------------|
E:------------------------------------------------------------------|

Verse 2:
    Bm      A       E       E
e:--2----2--0----0--0-------0------| (x2)
B:--3-----3-2-----2-0-------0------|
G:--4-------2-------1-------1------|
D:--4-------2-------2-------2------|
A:--2-------0-------2-------2------|
E:------------------0-------0------|

Second chorus starts with a different strumming:
e:-------------------------------------------------| (x2)
B:-------------------------------------------------|
G:--4-4---4-----2-2---2-----1-1---1-----1-1---1----|
D:--4-4---4-----2-2---2-----2-2---2-----2-2---2----|
A:-------------------------------------------------|
E:-------------------------------------------------|

Then back to the other strumming:
e:-------------------------------------------------| (x3)
B:-------------------------------------------------|
G:--4-4---4---------2-2---2---------1-1---1--------|
D:--4-4---4--(x2)---2-2---2--(x2)---2-2---2--(x4)--|
A:-------------------------------------------------|
E:-------------------------------------------------|

Outro: (x10)
e:-----------------------------------------------------------|
B:-----------------------------------------------------------|
G:-----------------------------------------------------------|
D:--(99h)12--99h12--99h12--99h12--99h11--99h11--99h11--99h11-|
A:-----------------------------------------------------------|
E:-----------------------------------------------------------|

e:-------------------------------------------|
B:-------------------------------------------|
G:----9----9----9----9----9----9----9----9---|
D:--99---99---99---99---99---99---99---99----|
A:-------------------------------------------|
E:-------------------------------------------|

e:-----------------------------------------------------|
B:-----------------------------------------------------|
G:---------------------------11-9----------------------|
D:--9-9---11---12/16--9----9------12--12-12-12/14--9---|
A:-----------------------------------------------------|
E:-----------------------------------------------------|

e:------------------------------|
B:------------------------------|
G:------------------------------|
D:--12-12-12\11---11/16--9------|
A:------------------------------|
E:------------------------------|

************************************

| /   slide up
| \   slide down
| h   hammer-on
| p   pull-off
| ~   vibrato
| +   harmonic
| x   Mute note
| b   Bend
| pb  Pre-bend
| br  Bend release
| pbr Pre-bend release
| brb Bend release bend

************************************
Tap to rate this tab
 
# A B C D E F G H I J K L M N O P Q R S T U V W X Y Z