Song name
# A B C D E F G H I J K L M N O P Q R S T U V W X Y Z

The Xx - Shelter tab

Tune: Standard
It sounds better with Reverb.

Intro and Verses.
"I found shelter.."

x4
e -------------------------------------------------------------------------------------|
b -------------------------------------------------------------------------------------|
G -------------------------------------------------------------------------------------|
D ------------------10------------14---------------------------------------------------|
A -------------------8------------12---------------------------------------------------|
E -------------------------------------------------------------------------------------|


Chorus:

"Maybe i had said..."
e -----------------------------------------------------------------------------------|
b -----------------------------------------------------------------------------------|
G -----------------------------------------------------------------------------------|
D -----7xxxx--x16--/--3xxxx--x16----/---2xxxxx--x16---2xxxxx ---x9-------------------|
A -----8xxxx--------/-5xxxx----------/---0xxxxx--------3xxxxx------------------------|
E -----------------------------------------------------------------------------------|

Bridge

e -------------------------------------------------------------------------------------|
b -------------------------------------------------------------------------------------|
G -----10 10 10 9---------------------10-10-10-9---------------------------------------|
D ----------------10 / 7-7-7--7-7-7--------------10-7/10-10-10--10-9-------------------|
A -------------------------------------------------------------------------------------|
E -------------------------------------------------------------------------------------|

e -------------------------------------------------------------------------------------|
b -------------------------------------------------------------------------------------|
G -----10 10 10 9-----10/12 --10-10-9--------------------------------------------------|
D ----------------10----------------- 10-10 10-9---------------------------------------|
A -------------------------------------------------------------------------------------|
E -------------------------------------------------------------------------------------|

And you do all the tab again.

Hope you like it.
Thanks
Tap to rate this tab
 
# A B C D E F G H I J K L M N O P Q R S T U V W X Y Z