Song name
# A B C D E F G H I J K L M N O P Q R S T U V W X Y Z

The Xx - Angels tab

The xx - Angels
From the album Coexist (young turks/xl recordings 2012).

Tabbed by Isaac Murguia, July 2012.
YouTube: Goadiroth

INTRO: (x3)
e|-----------------------------------|------------------------------------|
B|------------------14--14--14--14---|------------------------------------|
G|-11--11--11--11-----14--14--14--14-|-13--13--13--13--\-11--11--11--11---|
D|---12--12--12--12------------------|---14--14--14--14\---12--12--12--12-|
A|-----------------------------------|------------------------------------|
E|-----------------------------------|------------------------------------|

CHORUS: (x3)
e|---------------|
B|---------------|
G|---------------|
D|----------11---|
A|-9-/--11--12---|
E|-10/--12-------|

VERSE:
e|-----------------------------------|------------------------------------|
B|------------------14--14--14--14---|------------------------------------|
G|-11--11--11--11-----14--14--14--14-|-13--13--13--13--\-11--11--11--11---|
D|---12--12--12--12------------------|---14--14--14--14\---12--12--12--12-|
A|-----------------------------------|------------------------------------|
E|-----------------------------------|------------------------------------|
                            (x4)
e|------------------|------------------|
B|------------------|-14--14--14--14---|
G|-11--11--11--11---|---14--14--14--14-|
D|---12--12--12--12-|------------------|
A|------------------|------------------|
E|------------------|------------------|

CHORUS VARIATION:
                    (x3)
e|------------|--------------|
B|------------|--------------|
G|------------|--------------|
D|-11---------|----------11--|
A|-----11--9--|-9-/--11--12--|
E|------------|-10/--12------|

OUTRO: (x2)
e|---------------------|
B|------14-------------|
G|-11---14---13---11---|
D|-12--------14---12---|
A|---------------------|
E|---------------------| being as in love with you as i am...
Tap to rate this tab
# A B C D E F G H I J K L M N O P Q R S T U V W X Y Z