Song name
# A B C D E F G H I J K L M N O P Q R S T U V W X Y Z

The Xx - Tides tab

e:------------------------------------------------------------------|
B:------------------------------------------------------------------|
G:-9-5---9-5---9-5---9-5---12-7---12-7---12-7---12-7---10-7---10-7--|
D:-----7-----7-----7-----7------9------9------9------9------7------7|
A:------------------------------------------------------------------|
E:------------------------------------------------------------------|

e:------------------------------------------------------------------|
B:------------------------------------------------------------------|
G:-10-7---10-7---9-5---9-5---9-5---9-5---9-5---9-5---9-5---9-5------|
D:------7------7-----7-----7-----7-----7-----7-----7-----7-----7----|
A:------------------------------------------------------------------|
E:------------------------------------------------------------------|

e:------------------------------------------------------------------|
B:------------------------------------------------------------------|
G:-12-7---12-7---12-7---12-7---10-7---10-7---10-7---10-7---9-5------|
D:------9------9------9------9------7------7------7------7-----7----|
A:------------------------------------------------------------------|
E:------------------------------------------------------------------|

e:------------------------------------------------------------------|
B:------------------------------------------------------------------|
G:-9-5---9-5--------------------------------------------------------|
D:-----7-----7------------------------------------------------------|
A:------------------------------------------------------------------|
E:------------------------------------------------------------------|



e:------------------------------------------------------------------|
B:------------------------------------------------------------------|
G:-9-----9-9-10-9-9-------9-9-10-9-5---9-9-10-9---------------------|
D:------------------9-9-------------------------7/9-----------------|
A:------------------------------------------------------------------|
E:------------------------------------------------------------------|



e:------------------------------------------------------------------|
B:------------------------------------------------------------------|
G:-9-5---9-5---9-5---9-5---12-7---12-7---12-7---12-7---10-7---10-7--|
D:-----7-----7-----7-----7------9------9------9------9------7------7|
A:------------------------------------------------------------------|
E:------------------------------------------------------------------|

e:------------------------------------------------------------------|
B:------------------------------------------------------------------|
G:-10-7---10-7---9-5---9-5---9-5---9-5---9-5---9-5---9-5---9-5------|
D:------7------7-----7-----7-----7-----7-----7-----7-----7-----7----|
A:------------------------------------------------------------------|
E:------------------------------------------------------------------|

e:------------------------------------------------------------------|
B:------------------------------------------------------------------|
G:-12-7---12-7---12-7---12-7---10-7---10-7---10-7---10-7---9-5------|
D:------9------9------9------9------7------7------7------7-----7----|
A:------------------------------------------------------------------|
E:------------------------------------------------------------------|

e:------------------------------------------------------------------|
B:------------------------------------------------------------------|
G:-9-5---9-5---9-5---9----------------------------------------------|
D:-----7-----7-----7------------------------------------------------|
A:------------------------------------------------------------------|
E:------------------------------------------------------------------|





Tap to rate this tab
 
# A B C D E F G H I J K L M N O P Q R S T U V W X Y Z