Song name
# A B C D E F G H I J K L M N O P Q R S T U V W X Y Z

The Xx - Fiction tab

Standard Tuning: EADGBe

Main chord progression: Dm, F, A#

e|----------------------------------------------------------------|
B|----------------------------------------------------------------|
G|----------------------------------------------------------------|
D|-12---15---8------12---15---8------12---15---8------12---15---8-|
A|-10---13---6------10---13---6------10---13---6------10---13---6-|
E|----------------------------------------------------------------|

e|----------------------------------------------------------------|
B|----------------------------------------------------------------|
G|----------------------------------------------------------------|
D|-12---15---8------12---15---8------12---15---8------------------|
A|-10---13---6------10---13---6------10---13---6------------------|
E|----------------------------------------------------------------|

e|----------------------------------------------------------------|
B|----------------------------------------------------------------|
G|-12--12--15--12--12--15--12--15--15--15--10--14--10--10--14--10-|
D|----------------------------------------------------------------|
A|----------------------------------------------------------------|
E|----------------------------------------------------------------|

e|----------------------------------------------------------------|
B|----------------------------------------------------------------|
G|-12--12--15--12--12--15--12--15--15--15--10--14--10--10--14--10-|
D|----------------------------------------------------------------|
A|----------------------------------------------------------------|
E|----------------------------------------------------------------|

Piano - But you can fill gap with main riff

e|----------------------------------------------------------------|
B|----------------------------------------------------------------|
G|----------------------------------------------------------------|
D|-12---15---8----------------------------------------------------|
A|-10---13---6----------------------------------------------------|
E|----------------------------------------------------------------|


e|----------------------------------------------------------------|
B|----------------------------------------------------------------|
G|----------------------------------------------------------------|
D|----------------------------------------------------------------|
A|-10--10--13--10--10--13--10--13--13--13--8--12--8--8--12--8-----|
E|----------------------------------------------------------------|

e|----------------------------------------------------------------|
B|----------------------------------------------------------------|
G|----------------------------------------------------------------|
D|----------------------------------------------------------------|
A|-10--10--13--10--10--13--10--13--13--13--8--12--8--8--12--8-----|
E|----------------------------------------------------------------|

e|----------------------------------------------------------------|
B|----------------------------------------------------------------|
G|----------------------------------------------------------------|
D|----------------------------------------------------------------|
A|-10--10--13--10--10--13--10--13--13--13--8--12--8--8--12--8-----|
E|----------------------------------------------------------------|

e|----------------------------------------------------------------|
B|----------------------------------------------------------------|
G|----------------------------------------------------------------|
D|----------------------------------------------------------------|
A|-10--10--13--10--10--13--10--13--13--13--8--12--8--8--12--8-----|
E|----------------------------------------------------------------|

e|----------------------------------------------------------------|
B|----------------------------------------------------------------|
G|----------------------------------------------------------------|
D|-8--8--12--8--8--12--8--12--12--12--7--10--7--7--10--7----------|
A|----------------------------------------------------------------|
E|----------------------------------------------------------------|

e|----------------------------------------------------------------|
B|----------------------------------------------------------------|
G|----------------------------------------------------------------|
D|-8--8--12--8--8--12--8--12--12--12--7--10--7--7--10--7----------|
A|----------------------------------------------------------------|
E|----------------------------------------------------------------|

e|----------------------------------------------------------------|
B|----------------------------------------------------------------|
G|----------------------------------------------------------------|
D|-8--8--12--8--8--12--8--12--12--12--7--10--7--7--10--7----------|
A|----------------------------------------------------------------|
E|----------------------------------------------------------------|

e|----------------------------------------------------------------|
B|----------------------------------------------------------------|
G|----------------------------------------------------------------|
D|-8--8--12--8--8--12--8--12--12--12--7--10--7--7--10--7----------|
A|----------------------------------------------------------------|
E|----------------------------------------------------------------|

Piano -

e|----------------------------------------------------------------|
B|----------------------------------------------------------------|
G|----------------------------------------------------------------|
D|-12-12-12-12/13---15--8--8/10--12---12-12-12-12/13-10--10--10/12|
A|----------------------------------------------------------------|
E|----------------------------------------------------------------|

e|----------------------------------------------------------------|
B|----------------------------------------------------------------|
G|----------------------------------------------------------------|
D|-12-12-12-12/13---15--8--8/10--12---12-12-12-12/13-10--10--10/12|
A|----------------------------------------------------------------|
E|----------------------------------------------------------------|
Tap to rate this tab
# A B C D E F G H I J K L M N O P Q R S T U V W X Y Z