Song name
# A B C D E F G H I J K L M N O P Q R S T U V W X Y Z

The Xx - Try tab

Try - XX
Tabbed by: miletidal

Tuning: Standard
Palm muting
e|---------------------------------------------------------------|
B|---------------------------------------------------------------|
G|----7-----9-----11------7-----9-----11-------9-----11-----9----|
D|---------------------------------------------------------------|
A|---------------------------------------------------------------|
E|---------------------------------------------------------------|

e|---------------------------------------------------------------|
B|---------------------------------------------------------------|
G|---11---12---11------------------------------------------------|
D|---------------------------------------------------------------|
A|---------------------------------------------------------------|
E|---------------------------------------------------------------|


Long break 


Tremolo picking
e|---------------------------------------------------------------|
B|---------------------------------------------------------------|
G|---7-----9----6----------12----14----11------------------------|
D|---------------------------------------------------------------|
A|---------------------------------------------------------------|
E|---------------------------------------------------------------|

Palm muting
e|---------------------------------------------------------------|
B|---------------------------------------------------------------|
G|----7-----9-----11------7-----9-----11-------9-----11-----9----|
D|---------------------------------------------------------------|
A|---------------------------------------------------------------|
E|---------------------------------------------------------------|

e|---------------------------------------------------------------|
B|---------------------------------------------------------------|
G|---11---12---11------------------------------------------------|
D|---------------------------------------------------------------|
A|---------------------------------------------------------------|
E|-----------------------------------------------------------x 2-|

e|---------------------------------------------------------------|
B|---------------------------------------------------------------|
G|---7--7-9---9-11---11-6------6-7---7-9--9-12--12-6-------------|
D|---------------------------------------------------------------|
A|---------------------------------------------------------------|
E|---------------------------------------------------------------|


e|---------------------------------------------------------------|
B|---------------------------------------------------------------|
G|--12---12-11---11-9----9-7----7-6---6-7----12--11--------------|
D|---------------------------------------------------------------|
A|---------------------------------------------------------------|
E|---------------------------------------------------------------|


e|---------------------------------------------------------------|
B|---------------------------------------------------------------|
G|---7-----9----6----------12----14----11------------------------|
D|---------------------------------------------------------------|
A|---------------------------------------------------------------|
E|-----------------------------------------------------------x 2-| 
Tap to rate this tab
 
# A B C D E F G H I J K L M N O P Q R S T U V W X Y Z