Song name
# A B C D E F G H I J K L M N O P Q R S T U V W X Y Z

The Xx - Crystallised tab

Hi this is my first tab
E-----------------------------------------------------------------------------|
B-----------------------------------------------------------------------------|
G-------11--11--10--9----------------------9----------------------------------|
D-----9-------------------11--11--11--12-----12--9-\-9--12--12----------------|
A-----------------------------------------------------------------------------|
E-----------------------------------------------------------------------------|

E-----------------------------------------------------------------------------|
B-----------------------------------------------------------------------------|
G----------------------------11--11--10--9---------------------9--------------|
D--12------------12--9--9-------------------11--11--11--12---12---------------|
A-------10/10-----------------------------------------------------------------|

E----------------------------------------|
B----------------------------------------|
G----------------------------------------|
D--9-/-9--12--12--12---------------------|
A-------------------------10-------------|
E----------------------------------------|

Hope you enjoy :)
Tap to rate this tab
# A B C D E F G H I J K L M N O P Q R S T U V W X Y Z