Song name
# A B C D E F G H I J K L M N O P Q R S T U V W X Y Z

The Years Gone By - The Translation tab

this is my first tab so be nice. i did what i could, and i think i got most of it right. 
a pretty easy song and it just repeats itself. please comment!
                                                             -Matt
                                            mattcoulombe@gmail.com

standard tuning


INTRO/CHORUS

|-------------------------------------------|
|-------------------------------------------|
|---5-----9------7--9-9--7--9-9---7-7-9-7---|
|---5-x7--9-x9---7--9-9--7--9-9---7-7-9-7---| x2
|---3-----7------5--7-7--5--7-7---5-5-7-5---|
|-------------------------------------------|

|-------------------------------------------|
|-------------------------------------------|
|---5------7--------------------------------|
|---5-x16--7-x16----------------------------|
|---3------5--------------------------------|
|-------------------------------------------|


VERSE

|----------------    |------------------------------|
|----------------    |------------------------------|
|---5-----7------    |------------------------------|
|---5-x4--7-x4--- x4 |------------------------------|(play after second time)
|---3-----5------    |---10/7-5555-7---10/7 5555-3--|
|----------------    |------------------------------|

|-------|
|-------|
|---5~--|
|---5~--|
|---3~--|
|-------|


PLAY CHORUS

PLAY VERSE

PLAY CHORUS

BRIDGE                end on
|----------------    |-------|
|----------------    |-------|
|---5-----7------    |---5~--|
|---5-x4--7-x4--- x4 |---5~--|
|---3-----5------    |---3~--|
|----------------    |-------|

**dont know how to play the slow part of the bridge

|------|
|------|
|---5--|
|---5--|
|---3--|
|------|


PLAY CHORUS


end on:

|--------|
|--------|
|---5~---|
|---5~---|
|---3~---|
|--------|
Tap to rate this tab
# A B C D E F G H I J K L M N O P Q R S T U V W X Y Z